  0
SECTION
  2
HEADER
  9
$ACADVER
  1
AC1015
  9
$ACADMAINTVER
 70
     6
  9
$DWGCODEPAGE
  3
ANSI_1254
  9
$INSBASE
 10
0.0
 20
0.0
 30
0.0
  9
$EXTMIN
 10
0.0
 20
0.0
 30
0.0
  9
$EXTMAX
 10
279.4
 20
215.9
 30
0.0
  9
$LIMMIN
 10
0.0
 20
0.0
  9
$LIMMAX
 10
279.4
 20
215.9
  9
$ORTHOMODE
 70
     0
  9
$REGENMODE
 70
     1
  9
$FILLMODE
 70
     1
  9
$QTEXTMODE
 70
     0
  9
$MIRRTEXT
 70
     1
  9
$LTSCALE
 40
1.0
  9
$ATTMODE
 70
     1
  9
$TEXTSIZE
 40
3.5
  9
$TRACEWID
 40
1.0
  9
$TEXTSTYLE
  7
Standard
  9
$CLAYER
  8
0
  9
$CELTYPE
  6
ByLayer
  9
$CECOLOR
 62
   256
  9
$CELTSCALE
 40
1.0
  9
$DISPSILH
 70
     0
  9
$DIMSCALE
 40
1.0
  9
$DIMASZ
 40
3.5
  9
$DIMEXO
 40
1.0
  9
$DIMDLI
 40
3.75
  9
$DIMRND
 40
0.0
  9
$DIMDLE
 40
0.0
  9
$DIMEXE
 40
1.0
  9
$DIMTP
 40
0.0
  9
$DIMTM
 40
0.0
  9
$DIMTXT
 40
3.5
  9
$DIMCEN
 40
2.5
  9
$DIMTSZ
 40
0.0
  9
$DIMTOL
 70
     0
  9
$DIMLIM
 70
     0
  9
$DIMTIH
 70
     1
  9
$DIMTOH
 70
     1
  9
$DIMSE1
 70
     0
  9
$DIMSE2
 70
     0
  9
$DIMTAD
 70
     1
  9
$DIMZIN
 70
     0
  9
$DIMBLK
  1

  9
$DIMASO
 70
     1
  9
$DIMSHO
 70
     1
  9
$DIMPOST
  1

  9
$DIMAPOST
  1

  9
$DIMALT
 70
     0
  9
$DIMALTD
 70
     3
  9
$DIMALTF
 40
0.0393700787
  9
$DIMLFAC
 40
1.0
  9
$DIMTOFL
 70
     1
  9
$DIMTVP
 40
0.0
  9
$DIMTIX
 70
     0
  9
$DIMSOXD
 70
     0
  9
$DIMSAH
 70
     0
  9
$DIMBLK1
  1

  9
$DIMBLK2
  1

  9
$DIMSTYLE
  2
ISO-25
  9
$DIMCLRD
 70
     0
  9
$DIMCLRE
 70
     0
  9
$DIMCLRT
 70
     0
  9
$DIMTFAC
 40
1.0
  9
$DIMGAP
 40
1.524
  9
$DIMJUST
 70
     0
  9
$DIMSD1
 70
     0
  9
$DIMSD2
 70
     0
  9
$DIMTOLJ
 70
     0
  9
$DIMTZIN
 70
     0
  9
$DIMALTZ
 70
     0
  9
$DIMALTTZ
 70
     0
  9
$DIMUPT
 70
     0
  9
$DIMDEC
 70
     2
  9
$DIMTDEC
 70
     2
  9
$DIMALTU
 70
     2
  9
$DIMALTTD
 70
     3
  9
$DIMTXSTY
  7
Standard
  9
$DIMAUNIT
 70
     0
  9
$DIMADEC
 70
     2
  9
$DIMALTRND
 40
0.0
  9
$DIMAZIN
 70
     0
  9
$DIMDSEP
 70
    44
  9
$DIMATFIT
 70
     3
  9
$DIMFRAC
 70
     0
  9
$DIMLDRBLK
  1

  9
$DIMLUNIT
 70
     2
  9
$DIMLWD
 70
    -2
  9
$DIMLWE
 70
    -2
  9
$DIMTMOVE
 70
     0
  9
$LUNITS
 70
     2
  9
$LUPREC
 70
     2
  9
$SKETCHINC
 40
1.0
  9
$FILLETRAD
 40
10.0
  9
$AUNITS
 70
     0
  9
$AUPREC
 70
     2
  9
$MENU
  1
.
  9
$ELEVATION
 40
0.0
  9
$PELEVATION
 40
0.0
  9
$THICKNESS
 40
0.0
  9
$LIMCHECK
 70
     0
  9
$CHAMFERA
 40
0.0
  9
$CHAMFERB
 40
0.0
  9
$CHAMFERC
 40
0.0
  9
$CHAMFERD
 40
0.0
  9
$SKPOLY
 70
     0
  9
$TDCREATE
 40
2459954.364345822
  9
$TDUCREATE
 40
2459954.239345822
  9
$TDUPDATE
 40
2459954.364346181
  9
$TDUUPDATE
 40
2459954.239346181
  9
$TDINDWG
 40
0.0000000116
  9
$TDUSRTIMER
 40
0.0000000116
  9
$USRTIMER
 70
     1
  9
$ANGBASE
 50
0.0
  9
$ANGDIR
 70
     0
  9
$PDMODE
 70
     0
  9
$PDSIZE
 40
-1.0
  9
$PLINEWID
 40
0.0
  9
$SPLFRAME
 70
     0
  9
$SPLINETYPE
 70
     6
  9
$SPLINESEGS
 70
     8
  9
$HANDSEED
  5
10E
  9
$SURFTAB1
 70
     6
  9
$SURFTAB2
 70
     6
  9
$SURFTYPE
 70
     6
  9
$SURFU
 70
     6
  9
$SURFV
 70
     6
  9
$UCSBASE
  2

  9
$UCSNAME
  2

  9
$UCSORG
 10
0.0
 20
0.0
 30
0.0
  9
$UCSXDIR
 10
1.0
 20
0.0
 30
0.0
  9
$UCSYDIR
 10
0.0
 20
1.0
 30
0.0
  9
$UCSORTHOREF
  2

  9
$UCSORTHOVIEW
 70
     0
  9
$UCSORGTOP
 10
0.0
 20
0.0
 30
0.0
  9
$UCSORGBOTTOM
 10
0.0
 20
0.0
 30
0.0
  9
$UCSORGLEFT
 10
0.0
 20
0.0
 30
0.0
  9
$UCSORGRIGHT
 10
0.0
 20
0.0
 30
0.0
  9
$UCSORGFRONT
 10
0.0
 20
0.0
 30
0.0
  9
$UCSORGBACK
 10
0.0
 20
0.0
 30
0.0
  9
$PUCSBASE
  2

  9
$PUCSNAME
  2

  9
$PUCSORG
 10
0.0
 20
0.0
 30
0.0
  9
$PUCSXDIR
 10
1.0
 20
0.0
 30
0.0
  9
$PUCSYDIR
 10
0.0
 20
1.0
 30
0.0
  9
$PUCSORTHOREF
  2

  9
$PUCSORTHOVIEW
 70
     0
  9
$PUCSORGTOP
 10
0.0
 20
0.0
 30
0.0
  9
$PUCSORGBOTTOM
 10
0.0
 20
0.0
 30
0.0
  9
$PUCSORGLEFT
 10
0.0
 20
0.0
 30
0.0
  9
$PUCSORGRIGHT
 10
0.0
 20
0.0
 30
0.0
  9
$PUCSORGFRONT
 10
0.0
 20
0.0
 30
0.0
  9
$PUCSORGBACK
 10
0.0
 20
0.0
 30
0.0
  9
$USERI1
 70
     0
  9
$USERI2
 70
     0
  9
$USERI3
 70
     0
  9
$USERI4
 70
     0
  9
$USERI5
 70
     0
  9
$USERR1
 40
0.0
  9
$USERR2
 40
0.0
  9
$USERR3
 40
0.0
  9
$USERR4
 40
0.0
  9
$USERR5
 40
0.0
  9
$WORLDVIEW
 70
     1
  9
$SHADEDGE
 70
     3
  9
$SHADEDIF
 70
    70
  9
$TILEMODE
 70
     1
  9
$MAXACTVP
 70
    64
  9
$PINSBASE
 10
0.0
 20
0.0
 30
0.0
  9
$PLIMCHECK
 70
     0
  9
$PEXTMIN
 10
1.0000000000E+20
 20
1.0000000000E+20
 30
1.0000000000E+20
  9
$PEXTMAX
 10
-1.0000000000E+20
 20
-1.0000000000E+20
 30
-1.0000000000E+20
  9
$PLIMMIN
 10
0.0
 20
0.0
  9
$PLIMMAX
 10
420.0
 20
297.0
  9
$UNITMODE
 70
     0
  9
$VISRETAIN
 70
     1
  9
$PLINEGEN
 70
     0
  9
$PSLTSCALE
 70
     1
  9
$TREEDEPTH
 70
  3020
  9
$CMLSTYLE
  2
Standard
  9
$CMLJUST
 70
     0
  9
$CMLSCALE
 40
20.0
  9
$PROXYGRAPHICS
 70
     1
  9
$MEASUREMENT
 70
     1
  9
$CELWEIGHT
370
    -1
  9
$ENDCAPS
280
     0
  9
$JOINSTYLE
280
     0
  9
$LWDISPLAY
290
     1
  9
$INSUNITS
 70
     4
  9
$HYPERLINKBASE
  1

  9
$STYLESHEET
  1

  9
$XEDIT
290
     1
  9
$CEPSNTYPE
380
     0
  9
$PSTYLEMODE
290
     1
  9
$FINGERPRINTGUID
  2
{c772a661-b0c2-42e3-8cfd-de1c7f2ee925}
  9
$VERSIONGUID
  2
{FAEB1C32-E019-11D5-929B-00C0DF256EC4}
  9
$EXTNAMES
290
     1
  9
$PSVPSCALE
 40
0.0
  9
$OLESTARTUP
290
     0
  0
ENDSEC
  0
SECTION
  2
CLASSES
  0
CLASS
  1
ACDBDICTIONARYWDFLT
  2
AcDbDictionaryWithDefault
  3
ObjectDBX Classes
 90
        0
280
     0
281
     0
  0
CLASS
  1
VISUALSTYLE
  2
AcDbVisualStyle
  3
ObjectDBX Classes
 90
     4095
280
     0
281
     0
  0
CLASS
  1
MATERIAL
  2
AcDbMaterial
  3
ObjectDBX Classes
 90
     1153
280
     0
281
     0
  0
CLASS
  1
SCALE
  2
AcDbScale
  3
ObjectDBX Classes
 90
     1153
280
     0
281
     0
  0
CLASS
  1
TABLESTYLE
  2
AcDbTableStyle
  3
ObjectDBX Classes
 90
     4095
280
     0
281
     0
  0
CLASS
  1
MLEADERSTYLE
  2
AcDbMLeaderStyle
  3
ACDB_MLEADERSTYLE_CLASS
 90
     4095
280
     0
281
     0
  0
CLASS
  1
SUN
  2
AcDbSun
  3
SCENEOE
 90
     1153
280
     0
281
     0
  0
CLASS
  1
ACDBPLACEHOLDER
  2
AcDbPlaceHolder
  3
ObjectDBX Classes
 90
        0
280
     0
281
     0
  0
CLASS
  1
LAYOUT
  2
AcDbLayout
  3
ObjectDBX Classes
 90
        0
280
     0
281
     0
  0
ENDSEC
  0
SECTION
  2
TABLES
  0
TABLE
  2
VPORT
  5
8
330
0
100
AcDbSymbolTable
 70
     1
  0
VPORT
  5
29
330
8
100
AcDbSymbolTableRecord
100
AcDbViewportTableRecord
  2
*Active
 70
     0
 10
0.0
 20
0.0
 11
1.0
 21
1.0
 12
139.7
 22
107.95
 13
0.0
 23
0.0
 14
10.0
 24
10.0
 15
10.0
 25
10.0
 16
0.0
 26
0.0
 36
1.0
 17
0.0
 27
0.0
 37
0.0
 40
215.9
 41
1.2941176471
 42
50.0
 43
0.0
 44
0.0
 50
0.0
 51
0.0
 71
     0
 72
  2000
 73
     1
 74
     3
 75
     0
 76
     0
 77
     0
 78
     0
281
     0
 65
     1
110
0.0
120
0.0
130
0.0
111
1.0
121
0.0
131
0.0
112
0.0
122
1.0
132
0.0
 79
     0
146
0.0
  0
ENDTAB
  0
TABLE
  2
LTYPE
  5
5
330
0
100
AcDbSymbolTable
 70
     6
  0
LTYPE
  5
14
330
5
100
AcDbSymbolTableRecord
100
AcDbLinetypeTableRecord
  2
ByBlock
 70
     0
  3

 72
    65
 73
     0
 40
0.0
  0
LTYPE
  5
15
330
5
100
AcDbSymbolTableRecord
100
AcDbLinetypeTableRecord
  2
ByLayer
 70
     0
  3

 72
    65
 73
     0
 40
0.0
  0
LTYPE
  5
16
330
5
100
AcDbSymbolTableRecord
100
AcDbLinetypeTableRecord
  2
Continuous
 70
     0
  3
Solid line
 72
    65
 73
     0
 40
0.0
  0
LTYPE
  5
6E
330
5
100
AcDbSymbolTableRecord
100
AcDbLinetypeTableRecord
  2
HIDDEN
 70
     0
  3
Hidden __ __ __ __ __ __ __ __ __ __ __ __ __ __
 72
    65
 73
     2
 40
1.905
 49
1.27
 74
     0
 49
-0.635
 74
     0
  0
LTYPE
  5
6F
330
5
100
AcDbSymbolTableRecord
100
AcDbLinetypeTableRecord
  2
PHANTOM
 70
     0
  3
Phantom ______  __  __  ______  __  __  ______
 72
    65
 73
     6
 40
12.7
 49
6.35
 74
     0
 49
-1.27
 74
     0
 49
1.27
 74
     0
 49
-1.27
 74
     0
 49
1.27
 74
     0
 49
-1.27
 74
     0
  0
LTYPE
  5
70
330
5
100
AcDbSymbolTableRecord
100
AcDbLinetypeTableRecord
  2
CENTER
 70
     0
  3
Center ____ _ ____ _ ____ _ ____ _ ____ _ ____
 72
    65
 73
     4
 40
10.16
 49
6.35
 74
     0
 49
-1.27
 74
     0
 49
1.27
 74
     0
 49
-1.27
 74
     0
  0
LTYPE
  5
71
330
5
100
AcDbSymbolTableRecord
100
AcDbLinetypeTableRecord
  2
CENTERX2
 70
     0
  3
Center (2x) ________  __  ________  __  _____
 72
    65
 73
     4
 40
20.32
 49
12.7
 74
     0
 49
-2.54
 74
     0
 49
2.54
 74
     0
 49
-2.54
 74
     0
  0
LTYPE
  5
72
330
5
100
AcDbSymbolTableRecord
100
AcDbLinetypeTableRecord
  2
DOT2
 70
     0
  3
Dot (.5x) ........................................
 72
    65
 73
     2
 40
0.635
 49
0.0
 74
     0
 49
-0.635
 74
     0
  0
ENDTAB
  0
TABLE
  2
LAYER
  5
2
330
0
100
AcDbSymbolTable
 70
    17
  0
LAYER
  5
10
330
2
100
AcDbSymbolTableRecord
100
AcDbLayerTableRecord
  2
0
 70
     0
 62
     7
  6
Continuous
370
    -3
390
F
  0
LAYER
  5
73
330
2
100
AcDbSymbolTableRecord
100
AcDbLayerTableRecord
  2
FORMAT
 70
     0
 62
     7
  6
Continuous
370
    -3
390
F
  0
LAYER
  5
74
330
2
100
AcDbSymbolTableRecord
100
AcDbLayerTableRecord
  2
YARDIMCI_GEOMETRI
 70
     0
 62
    -6
  6
Continuous
290
     0
370
    -3
390
F
  0
LAYER
  5
75
330
2
100
AcDbSymbolTableRecord
100
AcDbLayerTableRecord
  2
SAYFA_CERCEVESI
 70
     0
 62
     7
  6
Continuous
370
    25
390
F
  0
LAYER
  5
76
330
2
100
AcDbSymbolTableRecord
100
AcDbLayerTableRecord
  2
ANTET
 70
     0
 62
     7
  6
Continuous
370
    -3
390
F
  0
LAYER
  5
77
330
2
100
AcDbSymbolTableRecord
100
AcDbLayerTableRecord
  2
OLCU
 70
     0
 62
   150
  6
Continuous
370
    -3
390
F
  0
LAYER
  5
78
330
2
100
AcDbSymbolTableRecord
100
AcDbLayerTableRecord
  2
METIN
 70
     0
 62
    96
  6
Continuous
370
    -3
390
F
  0
LAYER
  5
79
330
2
100
AcDbSymbolTableRecord
100
AcDbLayerTableRecord
  2
BALON
 70
     0
 62
     5
  6
Continuous
370
    -3
390
F
  0
LAYER
  5
7A
330
2
100
AcDbSymbolTableRecord
100
AcDbLayerTableRecord
  2
VURGU
 70
     0
 62
     7
  6
Continuous
370
    -3
390
F
  0
LAYER
  5
7B
330
2
100
AcDbSymbolTableRecord
100
AcDbLayerTableRecord
  2
SILIK
 70
     0
 62
     7
  6
Continuous
370
    -3
390
F
  0
LAYER
  5
7C
330
2
100
AcDbSymbolTableRecord
100
AcDbLayerTableRecord
  2
MODEL
 70
     0
 62
     7
  6
Continuous
370
    -3
390
F
  0
LAYER
  5
7D
330
2
100
AcDbSymbolTableRecord
100
AcDbLayerTableRecord
  2
DETAYLANDıRMA
 70
     0
 62
   190
  6
Continuous
370
    -3
390
F
  0
LAYER
  5
7E
330
2
100
AcDbSymbolTableRecord
100
AcDbLayerTableRecord
  2
TOLERANS
 70
     0
 62
   230
  6
Continuous
370
    -3
390
F
  0
LAYER
  5
7F
330
2
100
AcDbSymbolTableRecord
100
AcDbLayerTableRecord
  2
MERKEZ_CIZGILERI
 70
     0
 62
    30
  6
Continuous
370
    -3
390
F
  0
LAYER
  5
80
330
2
100
AcDbSymbolTableRecord
100
AcDbLayerTableRecord
  2
KESIT-DETAY_CIZGILERI
 70
     0
 62
     7
  6
Continuous
370
    -3
390
F
  0
LAYER
  5
81
330
2
100
AcDbSymbolTableRecord
100
AcDbLayerTableRecord
  2
\U+041E\U+0421\U+0415\U+0412\U+042B\U+0415
 70
     0
 62
     7
  6
Continuous
370
    -3
390
F
  0
LAYER
  5
82
330
2
100
AcDbSymbolTableRecord
100
AcDbLayerTableRecord
  2
\U+0412\U+041E\U+0414\U+042F\U+041D\U+042B\U+0415_\U+0417\U+041D\U+0410\U+041A\U+0418
 70
     0
 62
    11
  6
Continuous
370
    -3
390
F
  0
ENDTAB
  0
TABLE
  2
STYLE
  5
3
330
0
100
AcDbSymbolTable
 70
     1
  0
STYLE
  5
11
330
3
100
AcDbSymbolTableRecord
100
AcDbTextStyleTableRecord
  2
Standard
 70
     0
 40
0.0
 41
1.0
 50
0.0
 71
     0
 42
3.5
  3
txt
  4

  0
ENDTAB
  0
TABLE
  2
VIEW
  5
6
330
0
100
AcDbSymbolTable
 70
     0
  0
ENDTAB
  0
TABLE
  2
UCS
  5
7
330
0
100
AcDbSymbolTable
 70
     0
  0
ENDTAB
  0
TABLE
  2
APPID
  5
9
330
0
100
AcDbSymbolTable
 70
     1
  0
APPID
  5
12
330
9
100
AcDbSymbolTableRecord
100
AcDbRegAppTableRecord
  2
ACAD
 70
     0
  0
ENDTAB
  0
TABLE
  2
DIMSTYLE
  5
A
330
0
100
AcDbSymbolTable
 70
     1
100
AcDbDimStyleTable
  0
DIMSTYLE
105
27
330
A
100
AcDbSymbolTableRecord
100
AcDbDimStyleTableRecord
  2
ISO-25
 70
     0
 41
2.5
 42
0.625
 43
3.75
 44
1.25
 73
     0
 74
     0
 77
     1
 78
     8
140
2.5
141
2.5
143
0.0393700787
147
0.625
171
     3
172
     1
178
     0
271
     2
272
     2
274
     3
278
    44
283
     0
284
     8
340
11
  0
ENDTAB
  0
TABLE
  2
BLOCK_RECORD
  5
1
330
0
100
AcDbSymbolTable
 70
     4
  0
BLOCK_RECORD
  5
1F
330
1
100
AcDbSymbolTableRecord
100
AcDbBlockTableRecord
  2
*Model_Space
340
22
  0
BLOCK_RECORD
  5
1B
330
1
100
AcDbSymbolTableRecord
100
AcDbBlockTableRecord
  2
*Paper_Space
340
1E
  0
BLOCK_RECORD
  5
23
330
1
100
AcDbSymbolTableRecord
100
AcDbBlockTableRecord
  2
*Paper_Space0
340
26
  0
BLOCK_RECORD
  5
8C
330
1
100
AcDbSymbolTableRecord
100
AcDbBlockTableRecord
  2
SW_CENTERMARKSYMBOL_0
340
0
102
{BLKREFS
331
97
102
}
  0
BLOCK_RECORD
  5
DE
330
1
100
AcDbSymbolTableRecord
100
AcDbBlockTableRecord
  2
SW_CENTERMARKSYMBOL_1
340
0
102
{BLKREFS
331
E9
102
}
  0
BLOCK_RECORD
  5
EA
330
1
100
AcDbSymbolTableRecord
100
AcDbBlockTableRecord
  2
SW_CENTERMARKSYMBOL_2
340
0
102
{BLKREFS
331
F5
102
}
  0
ENDTAB
  0
ENDSEC
  0
SECTION
  2
BLOCKS
  0
BLOCK
  5
20
330
1F
100
AcDbEntity
  8
0
100
AcDbBlockBegin
  2
*Model_Space
 70
     0
 10
0.0
 20
0.0
 30
0.0
  3
*Model_Space
  1

  0
ENDBLK
  5
21
330
1F
100
AcDbEntity
  8
0
100
AcDbBlockEnd
  0
BLOCK
  5
1C
330
1B
100
AcDbEntity
 67
     1
  8
0
100
AcDbBlockBegin
  2
*Paper_Space
 70
     0
 10
0.0
 20
0.0
 30
0.0
  3
*Paper_Space
  1

  0
ENDBLK
  5
1D
330
1B
100
AcDbEntity
 67
     1
  8
0
100
AcDbBlockEnd
  0
BLOCK
  5
24
330
23
100
AcDbEntity
  8
0
100
AcDbBlockBegin
  2
*Paper_Space0
 70
     0
 10
0.0
 20
0.0
 30
0.0
  3
*Paper_Space0
  1

  0
ENDBLK
  5
25
330
23
100
AcDbEntity
  8
0
100
AcDbBlockEnd
  0
BLOCK
  5
8D
330
8C
100
AcDbEntity
  8
0
100
AcDbBlockBegin
  2
SW_CENTERMARKSYMBOL_0
 70
     0
 10
0.0
 20
0.0
 30
0.0
  3
SW_CENTERMARKSYMBOL_0
  1

  0
LINE
  5
8F
330
8C
100
AcDbEntity
  8
FORMAT
 62
     0
100
AcDbLine
 10
0.0
 20
0.0
 30
0.0
 11
0.0
 21
2.5
 31
0.0
  0
LINE
  5
90
330
8C
100
AcDbEntity
  8
FORMAT
 62
     0
100
AcDbLine
 10
0.0
 20
0.0
 30
0.0
 11
-2.5
 21
0.0
 31
0.0
  0
LINE
  5
91
330
8C
100
AcDbEntity
  8
FORMAT
 62
     0
100
AcDbLine
 10
0.0
 20
0.0
 30
0.0
 11
0.0
 21
-2.5
 31
0.0
  0
LINE
  5
92
330
8C
100
AcDbEntity
  8
FORMAT
 62
     0
100
AcDbLine
 10
0.0
 20
0.0
 30
0.0
 11
2.5
 21
0.0
 31
0.0
  0
LINE
  5
93
330
8C
100
AcDbEntity
  8
FORMAT
 62
     0
100
AcDbLine
 10
0.0
 20
5.0
 30
0.0
 11
0.0
 21
27.7
 31
0.0
  0
LINE
  5
94
330
8C
100
AcDbEntity
  8
FORMAT
 62
     0
100
AcDbLine
 10
-5.0
 20
0.0
 30
0.0
 11
-27.7
 21
0.0
 31
0.0
  0
LINE
  5
95
330
8C
100
AcDbEntity
  8
FORMAT
 62
     0
100
AcDbLine
 10
0.0
 20
-5.0
 30
0.0
 11
0.0
 21
-27.7
 31
0.0
  0
LINE
  5
96
330
8C
100
AcDbEntity
  8
FORMAT
 62
     0
100
AcDbLine
 10
5.0
 20
0.0
 30
0.0
 11
27.7
 21
0.0
 31
0.0
  0
ENDBLK
  5
8E
330
8C
100
AcDbEntity
  8
0
100
AcDbBlockEnd
  0
BLOCK
  5
DF
330
DE
100
AcDbEntity
  8
0
100
AcDbBlockBegin
  2
SW_CENTERMARKSYMBOL_1
 70
     0
 10
0.0
 20
0.0
 30
0.0
  3
SW_CENTERMARKSYMBOL_1
  1

  0
LINE
  5
E1
330
DE
100
AcDbEntity
  8
FORMAT
 62
     0
100
AcDbLine
 10
0.0
 20
0.0
 30
0.0
 11
0.0
 21
2.5
 31
0.0
  0
LINE
  5
E2
330
DE
100
AcDbEntity
  8
FORMAT
 62
     0
100
AcDbLine
 10
0.0
 20
0.0
 30
0.0
 11
-2.5
 21
0.0
 31
0.0
  0
LINE
  5
E3
330
DE
100
AcDbEntity
  8
FORMAT
 62
     0
100
AcDbLine
 10
0.0
 20
0.0
 30
0.0
 11
0.0
 21
-2.5
 31
0.0
  0
LINE
  5
E4
330
DE
100
AcDbEntity
  8
FORMAT
 62
     0
100
AcDbLine
 10
0.0
 20
0.0
 30
0.0
 11
2.5
 21
0.0
 31
0.0
  0
LINE
  5
E5
330
DE
100
AcDbEntity
  8
FORMAT
 62
     0
100
AcDbLine
 10
0.0
 20
5.0
 30
0.0
 11
0.0
 21
9.5
 31
0.0
  0
LINE
  5
E6
330
DE
100
AcDbEntity
  8
FORMAT
 62
     0
100
AcDbLine
 10
-5.0
 20
0.0
 30
0.0
 11
-9.5
 21
0.0
 31
0.0
  0
LINE
  5
E7
330
DE
100
AcDbEntity
  8
FORMAT
 62
     0
100
AcDbLine
 10
0.0
 20
-5.0
 30
0.0
 11
0.0
 21
-9.5
 31
0.0
  0
LINE
  5
E8
330
DE
100
AcDbEntity
  8
FORMAT
 62
     0
100
AcDbLine
 10
5.0
 20
0.0
 30
0.0
 11
9.5
 21
0.0
 31
0.0
  0
ENDBLK
  5
E0
330
DE
100
AcDbEntity
  8
0
100
AcDbBlockEnd
  0
BLOCK
  5
EB
330
EA
100
AcDbEntity
  8
0
100
AcDbBlockBegin
  2
SW_CENTERMARKSYMBOL_2
 70
     0
 10
0.0
 20
0.0
 30
0.0
  3
SW_CENTERMARKSYMBOL_2
  1

  0
LINE
  5
ED
330
EA
100
AcDbEntity
  8
FORMAT
 62
     0
100
AcDbLine
 10
0.0
 20
0.0
 30
0.0
 11
0.0
 21
2.5
 31
0.0
  0
LINE
  5
EE
330
EA
100
AcDbEntity
  8
FORMAT
 62
     0
100
AcDbLine
 10
0.0
 20
0.0
 30
0.0
 11
-2.5
 21
0.0
 31
0.0
  0
LINE
  5
EF
330
EA
100
AcDbEntity
  8
FORMAT
 62
     0
100
AcDbLine
 10
0.0
 20
0.0
 30
0.0
 11
0.0
 21
-2.5
 31
0.0
  0
LINE
  5
F0
330
EA
100
AcDbEntity
  8
FORMAT
 62
     0
100
AcDbLine
 10
0.0
 20
0.0
 30
0.0
 11
2.5
 21
0.0
 31
0.0
  0
LINE
  5
F1
330
EA
100
AcDbEntity
  8
FORMAT
 62
     0
100
AcDbLine
 10
0.0
 20
5.0
 30
0.0
 11
0.0
 21
9.5
 31
0.0
  0
LINE
  5
F2
330
EA
100
AcDbEntity
  8
FORMAT
 62
     0
100
AcDbLine
 10
-5.0
 20
0.0
 30
0.0
 11
-9.5
 21
0.0
 31
0.0
  0
LINE
  5
F3
330
EA
100
AcDbEntity
  8
FORMAT
 62
     0
100
AcDbLine
 10
0.0
 20
-5.0
 30
0.0
 11
0.0
 21
-9.5
 31
0.0
  0
LINE
  5
F4
330
EA
100
AcDbEntity
  8
FORMAT
 62
     0
100
AcDbLine
 10
5.0
 20
0.0
 30
0.0
 11
9.5
 21
0.0
 31
0.0
  0
ENDBLK
  5
EC
330
EA
100
AcDbEntity
  8
0
100
AcDbBlockEnd
  0
ENDSEC
  0
SECTION
  2
ENTITIES
  0
LINE
  5
83
330
1F
100
AcDbEntity
  8
0
  6
Continuous
 62
     7
370
    25
100
AcDbLine
 10
137.6070913462
 20
127.8901791434
 30
0.0
 11
137.6070913462
 21
143.8949519231
 31
0.0
  0
LINE
  5
84
330
1F
100
AcDbEntity
  8
0
  6
Continuous
 62
     7
370
    25
100
AcDbLine
 10
123.6070913462
 20
143.8949519231
 30
0.0
 11
123.6070913462
 21
127.8894401029
 31
0.0
  0
CIRCLE
  5
85
330
1F
100
AcDbEntity
  8
0
  6
Continuous
 62
     7
370
    25
100
AcDbCircle
 10
130.6070913462
 20
95.8949519231
 30
0.0
 40
32.19999999999999
  0
ARC
  5
86
330
1F
100
AcDbEntity
  8
0
  6
Continuous
 62
     7
370
    25
100
AcDbCircle
 10
130.6070913462
 20
95.8949519231
 30
0.0
 40
33.19999999999999
100
AcDbArc
 50
102.1717806549
 51
180.0
  0
ARC
  5
87
330
1F
100
AcDbEntity
  8
0
  6
Continuous
 62
     7
370
    25
100
AcDbCircle
 10
130.6070913462
 20
95.8949519231
 30
0.0
 40
33.2
100
AcDbArc
 50
180.0
 51
77.8282193451
  0
SPLINE
  5
88
330
1F
100
AcDbEntity
  8
0
  6
Continuous
 62
     7
370
    25
100
AcDbSpline
210
0.0
220
0.0
230
1.0
 70
     8
 71
     3
 72
    22
 73
    18
 74
     0
 42
0.00000001
 43
0.00000001
 40
0.0
 40
0.0
 40
0.0
 40
0.0
 40
0.0712713738150591
 40
0.1425408360384272
 40
0.213841162812852
 40
0.2851369701816721
 40
0.3558045046193577
 40
0.4264729255235606
 40
0.4966583081042688
 40
0.5668481564293153
 40
0.63771194779278
 40
0.7085758806179909
 40
0.7801086744389564
 40
0.8516354441995662
 40
0.9225014653422873
 40
0.9933650895595328
 40
1.0
 40
1.0
 40
1.0
 40
1.0
 10
135.6158867952717
 20
128.0591041207139
 30
0.0
 10
135.3272701064306
 20
128.0898351005651
 30
0.0
 10
134.7500444698264
 20
128.1512962360222
 30
0.0
 10
133.7299090569348
 20
128.2385394274625
 30
0.0
 10
132.6283705166685
 20
128.3059934804286
 30
0.0
 10
131.4697279002194
 20
128.3471094926525
 30
0.0
 10
130.2898182551174
 20
128.3541610540558
 30
0.0
 10
129.1248072498541
 20
128.329361017116
 30
0.0
 10
128.0056885479791
 20
128.2736194279265
 30
0.0
 10
126.9571859567599
 20
128.1961838962462
 30
0.0
 10
126.00966269626
 20
128.1052273313369
 30
0.0
 10
125.1823551944024
 20
128.0131068244696
 30
0.0
 10
124.5100598916227
 20
127.9336951046526
 30
0.0
 10
124.0018055870279
 20
127.8769629515104
 30
0.0
 10
123.7066827771952
 20
127.8603970341946
 30
0.0
 10
123.5810362015701
 20
127.8648495267863
 30
0.0
 10
123.6126605519977
 20
127.8875008471156
 30
0.0
 10
123.615368019097
 20
127.8894401029017
 30
0.0
  0
SPLINE
  5
89
330
1F
100
AcDbEntity
  8
0
  6
Continuous
 62
     7
370
    25
100
AcDbSpline
210
0.0
220
0.0
230
1.0
 70
     8
 71
     3
 72
    13
 73
     9
 74
     0
 42
0.00000001
 43
0.00000001
 40
0.0
 40
0.0
 40
0.0
 40
0.0
 40
0.026634268433874
 40
0.2442068519778059
 40
0.4579112406676805
 40
0.6716316441425954
 40
0.835813651725585
 40
1.0
 40
1.0
 40
1.0
 40
1.0
 10
137.5957982236376
 20
127.8901791433857
 30
0.0
 10
137.5992043630537
 20
127.8876789912494
 30
0.0
 10
137.6304349029977
 20
127.8647553549498
 30
0.0
 10
137.5042017137029
 20
127.8595469959224
 30
0.0
 10
137.2040386965963
 20
127.8783921661628
 30
0.0
 10
136.7461894855294
 20
127.9287227516298
 30
0.0
 10
136.2120282731349
 20
127.9919705086543
 30
0.0
 10
135.8146023724131
 20
128.03672605282
 30
0.0
 10
135.6158867952717
 20
128.0591041207139
 30
0.0
  0
CIRCLE
  5
8A
330
1F
100
AcDbEntity
  8
0
  6
Continuous
 62
     7
370
    25
100
AcDbCircle
 10
130.6070913462
 20
95.8949519231
 30
0.0
 40
25.19999999999999
  0
LINE
  5
8B
330
1F
100
AcDbEntity
  8
0
  6
Continuous
 62
     7
370
    25
100
AcDbLine
 10
137.6070913462
 20
143.8949519231
 30
0.0
 11
123.6070913462
 21
143.8949519231
 31
0.0
  0
INSERT
  5
97
330
1F
100
AcDbEntity
  8
FORMAT
 62
     7
100
AcDbBlockReference
  2
SW_CENTERMARKSYMBOL_0
 10
130.6070913462
 20
95.8949519231
 30
0.0
  0
ARC
  5
98
330
1F
100
AcDbEntity
  8
0
  6
Continuous
 62
     7
370
    25
100
AcDbCircle
 10
230.3939098982
 20
-537.5300480769
 30
0.0
 40
666.6249999999991
100
AcDbArc
 50
92.7063479912
 51
93.1387096095
  0
ARC
  5
99
330
1F
100
AcDbEntity
  8
0
  6
Continuous
 62
     7
370
    25
100
AcDbCircle
 10
230.3939098982
 20
-537.5300480769
 30
0.0
 40
666.6249999999991
100
AcDbArc
 50
90.0
 51
91.5053735832
  0
ARC
  5
9A
330
1F
100
AcDbEntity
  8
0
  6
Continuous
 62
     7
370
    25
100
AcDbCircle
 10
230.3939098982
 20
729.3199519231
 30
0.0
 40
666.624999999999
100
AcDbArc
 50
266.8612903905
 51
270.0
  0
LINE
  5
9B
330
1F
100
AcDbEntity
  8
0
  6
Continuous
 62
     7
370
    25
100
AcDbLine
 10
230.3939098982
 20
62.6949519231
 30
0.0
 11
255.3939098982
 21
62.6949519231
 31
0.0
  0
LINE
  5
9C
330
1F
100
AcDbEntity
  8
0
  6
Continuous
 62
     7
370
    25
100
AcDbLine
 10
255.3939098982
 20
129.0949519231
 30
0.0
 11
230.3939098982
 21
129.0949519231
 31
0.0
  0
ARC
  5
9D
330
1F
100
AcDbEntity
  8
0
  6
Continuous
 62
     7
370
    25
100
AcDbCircle
 10
255.3939098982
 20
-537.5300480769
 30
0.0
 40
666.6249999999992
100
AcDbArc
 50
88.493524775
 51
90.0
  0
ARC
  5
9E
330
1F
100
AcDbEntity
  8
0
  6
Continuous
 62
     7
370
    25
100
AcDbCircle
 10
255.3939098982
 20
-537.5300480769
 30
0.0
 40
666.6249999999991
100
AcDbArc
 50
86.8612903905
 51
87.2931536745
  0
ARC
  5
9F
330
1F
100
AcDbEntity
  8
0
  6
Continuous
 62
     7
370
    25
100
AcDbCircle
 10
255.3939098982
 20
729.3199519231
 30
0.0
 40
666.624999999999
100
AcDbArc
 50
270.0
 51
273.1387096095
  0
LINE
  5
A0
330
1F
100
AcDbEntity
  8
0
  6
Continuous
 62
     7
370
    25
100
AcDbLine
 10
212.8939098982
 20
128.8622063735
 30
0.0
 11
212.8939098982
 21
143.8949519231
 31
0.0
  0
LINE
  5
A1
330
1F
100
AcDbEntity
  8
0
  6
Continuous
 62
     7
370
    25
100
AcDbLine
 10
198.8939098982
 20
143.8949519231
 30
0.0
 11
198.8939098982
 21
128.3462428942
 31
0.0
  0
LINE
  5
A2
330
1F
100
AcDbEntity
  8
0
  6
Continuous
 62
     7
370
    25
100
AcDbLine
 10
286.8939098982
 20
128.3472355461
 30
0.0
 11
286.8939098982
 21
143.8949519231
 31
0.0
  0
LINE
  5
A3
330
1F
100
AcDbEntity
  8
0
  6
Continuous
 62
     7
370
    25
100
AcDbLine
 10
272.8939098982
 20
143.8949519231
 30
0.0
 11
272.8939098982
 21
128.8591772333
 31
0.0
  0
LINE
  5
A4
330
1F
100
AcDbEntity
  8
0
  6
Continuous
 62
     7
370
    25
100
AcDbLine
 10
193.8939098982
 20
95.8949519231
 30
0.0
 11
193.8939098982
 21
128.0949519231
 31
0.0
  0
LINE
  5
A5
330
1F
100
AcDbEntity
  8
0
  6
Continuous
 62
     7
370
    25
100
AcDbLine
 10
193.8939098982
 20
63.6949519231
 30
0.0
 11
193.8939098982
 21
95.8949519231
 31
0.0
  0
SPLINE
  5
A6
330
1F
100
AcDbEntity
  8
0
  6
Continuous
 62
     7
370
    25
100
AcDbSpline
210
0.0
220
0.0
230
1.0
 70
     8
 71
     3
 72
    27
 73
    23
 74
     0
 42
0.00000001
 43
0.00000001
 40
0.0
 40
0.0
 40
0.0
 40
0.0
 40
0.0083767861852404
 40
0.061953128968327
 40
0.1133529613759526
 40
0.1662018084987075
 40
0.2184007832232771
 40
0.2720461176273667
 40
0.3254358223585665
 40
0.3803684573749577
 40
0.4337715477141681
 40
0.4887880201952013
 40
0.5410822578358341
 40
0.5949288041201423
 40
0.6466707206525836
 40
0.6998794744946836
 40
0.752253107544247
 40
0.8061061435105099
 40
0.8591423240341823
 40
0.9137317128137075
 40
0.9664626760601671
 40
1.0
 40
1.0
 40
1.0
 40
1.0
 10
212.8812240531971
 20
128.8621936120583
 30
0.0
 10
212.8852630396929
 20
128.8631540380146
 30
0.0
 10
212.9151346211965
 20
128.8702571670446
 30
0.0
 10
212.7846966424777
 20
128.8390899688524
 30
0.0
 10
212.4817856691959
 20
128.7685182060591
 30
0.0
 10
211.9887973356375
 20
128.6589218984476
 30
0.0
 10
211.3292180319696
 20
128.5229833564134
 30
0.0
 10
210.5180624019189
 20
128.3724997920193
 30
0.0
 10
209.5633746788546
 20
128.2195094978026
 30
0.0
 10
208.5035405891109
 20
128.0807107097855
 30
0.0
 10
207.3554199117982
 20
127.9676885683805
 30
0.0
 10
206.1805167508163
 20
127.8927702049962
 30
0.0
 10
204.9931775493263
 20
127.8591343979212
 30
0.0
 10
203.8538822273255
 20
127.8666632111804
 30
0.0
 10
202.7659627988164
 20
127.9102326323403
 30
0.0
 10
201.7740674920604
 20
127.9807392117052
 30
0.0
 10
200.88389901523
 20
128.0689061364479
 30
0.0
 10
200.1342683234885
 20
128.1613115155369
 30
0.0
 10
199.5348674145257
 20
128.2470514017703
 30
0.0
 10
199.1278642396779
 20
128.3112065182065
 30
0.0
 10
198.9110247108228
 20
128.3474070637195
 30
0.0
 10
198.9161109354347
 20
128.3465676099428
 30
0.0
 10
198.918088236341
 20
128.3462412671562
 30
0.0
  0
LINE
  5
A7
330
1F
100
AcDbEntity
  8
0
  6
Continuous
 62
     7
370
    25
100
AcDbLine
 10
291.8939098982
 20
95.8949519231
 30
0.0
 11
291.8939098982
 21
128.0949519231
 31
0.0
  0
LINE
  5
A8
330
1F
100
AcDbEntity
  8
0
  6
Continuous
 62
     7
370
    25
100
AcDbLine
 10
291.8939098982
 20
63.6949519231
 30
0.0
 11
291.8939098982
 21
95.8949519231
 31
0.0
  0
SPLINE
  5
A9
330
1F
100
AcDbEntity
  8
0
  6
Continuous
 62
     7
370
    25
100
AcDbSpline
210
0.0
220
0.0
230
1.0
 70
     8
 71
     3
 72
    27
 73
    23
 74
     0
 42
0.00000001
 43
0.00000001
 40
0.0
 40
0.0
 40
0.0
 40
0.0
 40
0.0135811111249248
 40
0.0675410853474368
 40
0.1196265229661396
 40
0.1731954929148262
 40
0.2257833897208258
 40
0.2798676128636262
 40
0.3329226659929144
 40
0.3875427261571273
 40
0.4400946746146359
 40
0.4942174120748324
 40
0.5460035729483975
 40
0.5992778274835494
 40
0.6513713779164474
 40
0.704913727750631
 40
0.7581219888790552
 40
0.8128505140075585
 40
0.8663815979324556
 40
0.9215255422271594
 40
0.9739853709339988
 40
1.0
 40
1.0
 40
1.0
 40
1.0
 10
286.8756004674773
 20
128.3472297306534
 30
0.0
 10
286.8810585702861
 20
128.348145443008
 30
0.0
 10
286.908202607637
 20
128.3526994302131
 30
0.0
 10
286.7615236215636
 20
128.3279685227951
 30
0.0
 10
286.4317660296833
 20
128.2747161233588
 30
0.0
 10
285.9103071127267
 20
128.1967625124043
 30
0.0
 10
285.2190252552694
 20
128.1057567368364
 30
0.0
 10
284.3797400610941
 20
128.0140334157948
 30
0.0
 10
283.4020144264126
 20
127.9335592320735
 30
0.0
 10
282.3320819182048
 20
127.8782617417513
 30
0.0
 10
281.1850576023292
 20
127.8572281070308
 30
0.0
 10
280.0214744506623
 20
127.8763586073197
 30
0.0
 10
278.8512642697793
 20
127.936615360287
 30
0.0
 10
277.7262995362081
 20
128.0329392243717
 30
0.0
 10
276.6513543864975
 20
128.1599050018833
 30
0.0
 10
275.6671173246496
 20
128.3057017314035
 30
0.0
 10
274.785412654053
 20
128.460000620827
 30
0.0
 10
274.0480274100792
 20
128.6060665813174
 30
0.0
 10
273.4660630136728
 20
128.7321214429168
 30
0.0
 10
273.0859678340022
 20
128.819508128763
 30
0.0
 10
272.8982551796131
 20
128.8641687587885
 30
0.0
 10
272.9140121661143
 20
128.8604199277335
 30
0.0
 10
272.9192356766763
 20
128.8591771736948
 30
0.0
  0
LINE
  5
AA
330
1F
100
AcDbEntity
  8
0
  6
Continuous
 62
     7
370
    25
100
AcDbLine
 10
212.8939098982
 20
143.8949519231
 30
0.0
 11
198.8939098982
 21
143.8949519231
 31
0.0
  0
LINE
  5
AB
330
1F
100
AcDbEntity
  8
0
  6
Continuous
 62
     7
370
    25
100
AcDbLine
 10
286.8939098982
 20
143.8949519231
 30
0.0
 11
272.8939098982
 21
143.8949519231
 31
0.0
  0
LINE
  5
AC
330
1F
100
AcDbEntity
  8
0
  6
Continuous
 62
     1
370
    25
100
AcDbLine
 10
230.3939098982
 20
95.8949519231
 30
0.0
 11
230.3939098982
 21
129.0949519231
 31
0.0
  0
LINE
  5
AD
330
1F
100
AcDbEntity
  8
0
  6
Continuous
 62
     1
370
    25
100
AcDbLine
 10
230.3939098982
 20
62.6949519231
 30
0.0
 11
230.3939098982
 21
95.8949519231
 31
0.0
  0
LINE
  5
AE
330
1F
100
AcDbEntity
  8
0
  6
Continuous
 62
     1
370
    25
100
AcDbLine
 10
255.3939098982
 20
95.8949519231
 30
0.0
 11
255.3939098982
 21
129.0949519231
 31
0.0
  0
LINE
  5
AF
330
1F
100
AcDbEntity
  8
0
  6
Continuous
 62
     1
370
    25
100
AcDbLine
 10
255.3939098982
 20
62.6949519231
 30
0.0
 11
255.3939098982
 21
95.8949519231
 31
0.0
  0
ARC
  5
B0
330
1F
100
AcDbEntity
  8
0
  6
Continuous
 62
     7
370
    25
100
AcDbCircle
 10
764.0320913462
 20
218.3665928744
 30
0.0
 40
666.6249999999991
100
AcDbArc
 50
180.0
 51
183.1387096095
  0
ARC
  5
B1
330
1F
100
AcDbEntity
  8
0
  6
Continuous
 62
     7
370
    25
100
AcDbCircle
 10
-502.8179086538
 20
218.3665928744
 30
0.0
 40
666.624999999999
100
AcDbArc
 50
356.8612903905
 51
0.0
  0
LINE
  5
B2
330
1F
100
AcDbEntity
  8
0
  6
Continuous
 62
     7
370
    25
100
AcDbLine
 10
163.8070913462
 20
218.3665928744
 30
0.0
 11
163.8070913462
 21
243.3665928744
 31
0.0
  0
LINE
  5
B3
330
1F
100
AcDbEntity
  8
0
  6
Continuous
 62
     7
370
    25
100
AcDbLine
 10
97.4070913462
 20
243.3665928744
 30
0.0
 11
97.4070913462
 21
218.3665928744
 31
0.0
  0
ARC
  5
B4
330
1F
100
AcDbEntity
  8
0
  6
Continuous
 62
     7
370
    25
100
AcDbCircle
 10
764.0320913462
 20
243.3665928744
 30
0.0
 40
666.6249999999991
100
AcDbArc
 50
176.8612903905
 51
180.0
  0
ARC
  5
B5
330
1F
100
AcDbEntity
  8
0
  6
Continuous
 62
     7
370
    25
100
AcDbCircle
 10
-502.8179086538
 20
243.3665928744
 30
0.0
 40
666.624999999999
100
AcDbArc
 50
0.0
 51
3.1387096095
  0
LINE
  5
B6
330
1F
100
AcDbEntity
  8
0
  6
Continuous
 62
     7
370
    25
100
AcDbLine
 10
162.8070913462
 20
181.8665928744
 30
0.0
 11
98.4070913462
 21
181.8665928744
 31
0.0
  0
LINE
  5
B7
330
1F
100
AcDbEntity
  8
0
  6
Continuous
 62
     7
370
    25
100
AcDbLine
 10
162.8070913462
 20
279.8665928744
 30
0.0
 11
98.4070913462
 21
279.8665928744
 31
0.0
  0
LINE
  5
B8
330
1F
100
AcDbEntity
  8
0
  6
Continuous
 62
     1
370
    25
100
AcDbLine
 10
163.8070913462
 20
218.3665928744
 30
0.0
 11
97.4070913462
 21
218.3665928744
 31
0.0
  0
LINE
  5
B9
330
1F
100
AcDbEntity
  8
0
  6
Continuous
 62
     1
370
    25
100
AcDbLine
 10
163.8070913462
 20
243.3665928744
 30
0.0
 11
97.4070913462
 21
243.3665928744
 31
0.0
  0
ARC
  5
BA
330
1F
100
AcDbEntity
  8
0
  6
Continuous
 62
     7
370
    25
100
AcDbCircle
 10
13.2393109593
 20
729.3199519231
 30
0.0
 40
666.624999999999
100
AcDbArc
 50
270.0
 51
273.1387096095
  0
ARC
  5
BB
330
1F
100
AcDbEntity
  8
0
  6
Continuous
 62
     7
370
    25
100
AcDbCircle
 10
13.2393109593
 20
-537.5300480769
 30
0.0
 40
666.6249999999991
100
AcDbArc
 50
88.4946215485
 51
90.0
  0
ARC
  5
BC
330
1F
100
AcDbEntity
  8
0
  6
Continuous
 62
     7
370
    25
100
AcDbCircle
 10
13.2393109593
 20
-537.5300480769
 30
0.0
 40
666.6249999999991
100
AcDbArc
 50
86.8612903905
 51
87.2936546373
  0
LINE
  5
BD
330
1F
100
AcDbEntity
  8
0
  6
Continuous
 62
     7
370
    25
100
AcDbLine
 10
13.2393109593
 20
129.0949519231
 30
0.0
 11
-11.7606890407
 21
129.0949519231
 31
0.0
  0
LINE
  5
BE
330
1F
100
AcDbEntity
  8
0
  6
Continuous
 62
     7
370
    25
100
AcDbLine
 10
-11.7606890407
 20
62.6949519231
 30
0.0
 11
13.2393109593
 21
62.6949519231
 31
0.0
  0
ARC
  5
BF
330
1F
100
AcDbEntity
  8
0
  6
Continuous
 62
     7
370
    25
100
AcDbCircle
 10
-11.7606890407
 20
729.3199519231
 30
0.0
 40
666.624999999999
100
AcDbArc
 50
266.8612903905
 51
270.0
  0
ARC
  5
C0
330
1F
100
AcDbEntity
  8
0
  6
Continuous
 62
     7
370
    25
100
AcDbCircle
 10
-11.7606890407
 20
-537.5300480769
 30
0.0
 40
666.6249999999991
100
AcDbArc
 50
92.7068470375
 51
93.1387096095
  0
ARC
  5
C1
330
1F
100
AcDbEntity
  8
0
  6
Continuous
 62
     7
370
    25
100
AcDbCircle
 10
-11.7606890407
 20
-537.5300480769
 30
0.0
 40
666.6249999999991
100
AcDbArc
 50
90.0
 51
91.5064683317
  0
LINE
  5
C2
330
1F
100
AcDbEntity
  8
0
  6
Continuous
 62
     7
370
    25
100
AcDbLine
 10
44.7393109593
 20
128.3462428942
 30
0.0
 11
44.7393109593
 21
143.8949519231
 31
0.0
  0
LINE
  5
C3
330
1F
100
AcDbEntity
  8
0
  6
Continuous
 62
     7
370
    25
100
AcDbLine
 10
30.7393109593
 20
143.8949519231
 30
0.0
 11
30.7393109593
 21
128.8622063735
 31
0.0
  0
LINE
  5
C4
330
1F
100
AcDbEntity
  8
0
  6
Continuous
 62
     7
370
    25
100
AcDbLine
 10
-29.2606890407
 20
128.8591772333
 30
0.0
 11
-29.2606890407
 21
143.8949519231
 31
0.0
  0
LINE
  5
C5
330
1F
100
AcDbEntity
  8
0
  6
Continuous
 62
     7
370
    25
100
AcDbLine
 10
-43.2606890407
 20
143.8949519231
 30
0.0
 11
-43.2606890407
 21
128.3472355461
 31
0.0
  0
LINE
  5
C6
330
1F
100
AcDbEntity
  8
0
  6
Continuous
 62
     7
370
    25
100
AcDbLine
 10
49.7393109593
 20
128.0949519231
 30
0.0
 11
49.7393109593
 21
63.6949519231
 31
0.0
  0
SPLINE
  5
C7
330
1F
100
AcDbEntity
  8
0
  6
Continuous
 62
     7
370
    25
100
AcDbSpline
210
0.0
220
0.0
230
1.0
 70
     8
 71
     3
 72
    12
 73
     8
 74
     0
 42
0.00000001
 43
0.00000001
 40
0.0
 40
0.0
 40
0.0
 40
0.0
 40
0.204782255391747
 40
0.4154065533330299
 40
0.6202190344829974
 40
0.831177642338086
 40
1.0
 40
1.0
 40
1.0
 40
1.0
 10
32.92193299564588
 20
128.4100774415041
 30
0.0
 10
32.65454930548317
 20
128.4596094841249
 30
0.0
 10
32.11215398448486
 20
128.5600866229535
 30
0.0
 10
31.49269761461928
 20
128.6922125617205
 30
0.0
 10
31.03926383989114
 20
128.794185339761
 30
0.0
 10
30.77726653078166
 20
128.8561380138772
 30
0.0
 10
30.75976294366393
 20
128.8603325261909
 30
0.0
 10
30.75198215127815
 20
128.8621970942507
 30
0.0
  0
SPLINE
  5
C8
330
1F
100
AcDbEntity
  8
0
  6
Continuous
 62
     7
370
    25
100
AcDbSpline
210
0.0
220
0.0
230
1.0
 70
     8
 71
     3
 72
    22
 73
    18
 74
     0
 42
0.00000001
 43
0.00000001
 40
0.0
 40
0.0
 40
0.0
 40
0.0
 40
0.0280051672630045
 40
0.098316561882087
 40
0.170657588800773
 40
0.2411925551226932
 40
0.3137231964131134
 40
0.38512839163787
 40
0.4586033893755721
 40
0.5299453705750179
 40
0.6034221926097966
 40
0.6736317124524221
 40
0.7459024869230718
 40
0.8157637905051803
 40
0.8875847871691497
 40
0.9433209261830461
 40
1.0
 40
1.0
 40
1.0
 40
1.0
 10
44.71513114963965
 20
128.3462410205134
 30
0.0
 10
44.72140058518801
 20
128.3472932569411
 30
0.0
 10
44.74341042866682
 20
128.3509872990756
 30
0.0
 10
44.5766855882495
 20
128.3229592706011
 30
0.0
 10
44.22691549172355
 20
128.2668425921179
 30
0.0
 10
43.68083400888882
 20
128.186254645426
 30
0.0
 10
42.9762122174925
 20
128.0951213706414
 30
0.0
 10
42.11341879893298
 20
128.0034060379841
 30
0.0
 10
41.13067369283032
 20
127.9258601146679
 30
0.0
 10
40.04061080572674
 20
127.8736639493188
 30
0.0
 10
38.90027540247691
 20
127.8573385584844
 30
0.0
 10
37.72318703682584
 20
127.8815698713122
 30
0.0
 10
36.56739898310639
 20
127.9457488790857
 30
0.0
 10
35.43775986432386
 20
128.0469005250516
 30
0.0
 10
34.45726357472899
 20
128.1664483028442
 30
0.0
 10
33.60866328727197
 20
128.2914193719754
 30
0.0
 10
33.15211958363204
 20
128.3703041906443
 30
0.0
 10
32.92193299564588
 20
128.4100774415041
 30
0.0
  0
LINE
  5
C9
330
1F
100
AcDbEntity
  8
0
  6
Continuous
 62
     7
370
    25
100
AcDbLine
 10
-48.2606890407
 20
128.0949519231
 30
0.0
 11
-48.2606890407
 21
63.6949519231
 31
0.0
  0
SPLINE
  5
CA
330
1F
100
AcDbEntity
  8
0
  6
Continuous
 62
     7
370
    25
100
AcDbSpline
210
0.0
220
0.0
230
1.0
 70
     8
 71
     3
 72
    12
 73
     8
 74
     0
 42
0.00000001
 43
0.00000001
 40
0.0
 40
0.0
 40
0.0
 40
0.0
 40
0.2086396116088521
 40
0.423288626273068
 40
0.6319401713185169
 40
0.8467436703341411
 40
1.0
 40
1.0
 40
1.0
 40
1.0
 10
-41.15067555896952
 20
128.0591041207139
 30
0.0
 10
-41.4148852277125
 20
128.0894217081796
 30
0.0
 10
-41.95091454097606
 20
128.1509301142359
 30
0.0
 10
-42.55641222081929
 20
128.2378447015763
 30
0.0
 10
-42.99201195562453
 20
128.305434261458
 30
0.0
 10
-43.23250352533135
 20
128.3455494811335
 30
0.0
 10
-43.23948024314226
 20
128.3467364418219
 30
0.0
 10
-43.24238527673054
 20
128.3472306800528
 30
0.0
  0
SPLINE
  5
CB
330
1F
100
AcDbEntity
  8
0
  6
Continuous
 62
     7
370
    25
100
AcDbSpline
210
0.0
220
0.0
230
1.0
 70
     8
 71
     3
 72
    22
 73
    18
 74
     0
 42
0.00000001
 43
0.00000001
 40
0.0
 40
0.0
 40
0.0
 40
0.0
 40
0.0375452178973303
 40
0.1064571309724568
 40
0.1773446347423408
 40
0.2467556153347535
 40
0.318086995221074
 40
0.3891760422017764
 40
0.4622829123721104
 40
0.5340474313496811
 40
0.607960042558186
 40
0.6785230011890017
 40
0.7512070272426348
 40
0.8205624704310203
 40
0.8919094157484009
 40
0.945517976112151
 40
1.0
 40
1.0
 40
1.0
 40
1.0
 10
-29.28601486677659
 20
128.8591771623588
 30
0.0
 10
-29.28143212421208
 20
128.8602665156523
 30
0.0
 10
-29.26843804260262
 20
128.8633553091856
 30
0.0
 10
-29.45723884497445
 20
128.8184712559374
 30
0.0
 10
-29.82578136804173
 20
128.7337871985952
 30
0.0
 10
-30.38153096874761
 20
128.6131386258015
 30
0.0
 10
-31.0931753092663
 20
128.4712311881589
 30
0.0
 10
-31.9606061114481
 20
128.317628263633
 30
0.0
 10
-32.95162665991326
 20
128.1686327072112
 30
0.0
 10
-34.05251722678094
 20
128.0367249675981
 30
0.0
 10
-35.20751131642113
 20
127.9369826803701
 30
0.0
 10
-36.39958999463036
 20
127.8758420010833
 30
0.0
 10
-37.56465173858074
 20
127.8573344134226
 30
0.0
 10
-38.69724943272907
 20
127.8784240235924
 30
0.0
 10
-39.66496465850844
 20
127.9282272458265
 30
0.0
 10
-40.49134663382796
 20
127.9917618380832
 30
0.0
 10
-40.92971844534125
 20
128.0365360885409
 30
0.0
 10
-41.15067555896952
 20
128.0591041207139
 30
0.0
  0
LINE
  5
CC
330
1F
100
AcDbEntity
  8
0
  6
Continuous
 62
     7
370
    25
100
AcDbLine
 10
44.7393109593
 20
143.8949519231
 30
0.0
 11
30.7393109593
 21
143.8949519231
 31
0.0
  0
LINE
  5
CD
330
1F
100
AcDbEntity
  8
0
  6
Continuous
 62
     7
370
    25
100
AcDbLine
 10
-29.2606890407
 20
143.8949519231
 30
0.0
 11
-43.2606890407
 21
143.8949519231
 31
0.0
  0
LINE
  5
CE
330
1F
100
AcDbEntity
  8
0
  6
Continuous
 62
     1
370
    25
100
AcDbLine
 10
13.2393109593
 20
129.0949519231
 30
0.0
 11
13.2393109593
 21
62.6949519231
 31
0.0
  0
LINE
  5
CF
330
1F
100
AcDbEntity
  8
0
  6
Continuous
 62
     1
370
    25
100
AcDbLine
 10
-11.7606890407
 20
129.0949519231
 30
0.0
 11
-11.7606890407
 21
62.6949519231
 31
0.0
  0
ARC
  5
D0
330
1F
100
AcDbEntity
  8
0
  6
Continuous
 62
     7
370
    25
100
AcDbCircle
 10
-502.8179086538
 20
-5.9008465476
 30
0.0
 40
666.624999999999
100
AcDbArc
 50
0.0
 51
3.1387096095
  0
ARC
  5
D1
330
1F
100
AcDbEntity
  8
0
  6
Continuous
 62
     7
370
    25
100
AcDbCircle
 10
764.0320913462
 20
-5.9008465476
 30
0.0
 40
666.6249999999991
100
AcDbArc
 50
176.8612903905
 51
180.0
  0
LINE
  5
D2
330
1F
100
AcDbEntity
  8
0
  6
Continuous
 62
     7
370
    25
100
AcDbLine
 10
97.4070913462
 20
-5.9008465476
 30
0.0
 11
97.4070913462
 21
-30.9008465476
 31
0.0
  0
LINE
  5
D3
330
1F
100
AcDbEntity
  8
0
  6
Continuous
 62
     7
370
    25
100
AcDbLine
 10
163.8070913462
 20
-30.9008465476
 30
0.0
 11
163.8070913462
 21
-5.9008465476
 31
0.0
  0
ARC
  5
D4
330
1F
100
AcDbEntity
  8
0
  6
Continuous
 62
     7
370
    25
100
AcDbCircle
 10
-502.8179086538
 20
-30.9008465476
 30
0.0
 40
666.624999999999
100
AcDbArc
 50
356.8612903905
 51
0.0
  0
ARC
  5
D5
330
1F
100
AcDbEntity
  8
0
  6
Continuous
 62
     7
370
    25
100
AcDbCircle
 10
764.0320913462
 20
-30.9008465476
 30
0.0
 40
666.6249999999991
100
AcDbArc
 50
180.0
 51
183.1387096095
  0
CIRCLE
  5
D6
330
1F
100
AcDbEntity
  8
0
  6
Continuous
 62
     7
370
    25
100
AcDbCircle
 10
130.6070913462
 20
18.5991534524
 30
0.0
 40
5.000000000000005
  0
CIRCLE
  5
D7
330
1F
100
AcDbEntity
  8
0
  6
Continuous
 62
     7
370
    25
100
AcDbCircle
 10
130.6070913462
 20
18.5991534524
 30
0.0
 40
7.000000000000014
  0
CIRCLE
  5
D8
330
1F
100
AcDbEntity
  8
0
  6
Continuous
 62
     7
370
    25
100
AcDbCircle
 10
130.6070913462
 20
-55.4008465476
 30
0.0
 40
7.000000000000021
  0
CIRCLE
  5
D9
330
1F
100
AcDbEntity
  8
0
  6
Continuous
 62
     7
370
    25
100
AcDbCircle
 10
130.6070913462
 20
-55.4008465476
 30
0.0
 40
5.000000000000007
  0
LINE
  5
DA
330
1F
100
AcDbEntity
  8
0
  6
Continuous
 62
     7
370
    25
100
AcDbLine
 10
98.4070913462
 20
30.5991534524
 30
0.0
 11
162.8070913462
 21
30.5991534524
 31
0.0
  0
LINE
  5
DB
330
1F
100
AcDbEntity
  8
0
  6
Continuous
 62
     7
370
    25
100
AcDbLine
 10
98.4070913462
 20
-67.4008465476
 30
0.0
 11
162.8070913462
 21
-67.4008465476
 31
0.0
  0
LINE
  5
DC
330
1F
100
AcDbEntity
  8
0
  6
Continuous
 62
     1
370
    25
100
AcDbLine
 10
97.4070913462
 20
-5.9008465476
 30
0.0
 11
163.8070913462
 21
-5.9008465476
 31
0.0
  0
LINE
  5
DD
330
1F
100
AcDbEntity
  8
0
  6
Continuous
 62
     1
370
    25
100
AcDbLine
 10
97.4070913462
 20
-30.9008465476
 30
0.0
 11
163.8070913462
 21
-30.9008465476
 31
0.0
  0
INSERT
  5
E9
330
1F
100
AcDbEntity
  8
FORMAT
 62
     7
100
AcDbBlockReference
  2
SW_CENTERMARKSYMBOL_1
 10
130.6070913462
 20
18.5991534524
 30
0.0
  0
INSERT
  5
F5
330
1F
100
AcDbEntity
  8
FORMAT
 62
     7
100
AcDbBlockReference
  2
SW_CENTERMARKSYMBOL_2
 10
130.6070913462
 20
-55.4008465476
 30
0.0
  0
SPLINE
  5
F6
330
1F
100
AcDbEntity
  8
0
  6
Continuous
 62
     7
370
    25
100
AcDbSpline
210
0.0
220
0.0
230
1.0
 70
     8
 71
     3
 72
    12
 73
     8
 74
     0
 42
0.00000001
 43
0.00000001
 40
0.0
 40
0.0
 40
0.0
 40
0.0
 40
0.0432954944728241
 40
0.3371381059736598
 40
0.630841234415869
 40
0.9243795332071363
 40
0.9999999999999999
 40
0.9999999999999999
 40
0.9999999999999999
 40
0.9999999999999999
 10
222.4957394631604
 20
3.030667518348734
 30
0.0
 10
222.2281877495303
 20
2.871175640730547
 30
0.0
 10
220.1447867148139
 20
1.629226791477164
 30
0.0
 10
216.2901252527533
 20
-0.7656644714243762
 30
0.0
 10
210.9425588053249
 20
-4.163314676416592
 30
0.0
 10
206.9488266260073
 20
-6.763899712758541
 30
0.0
 10
204.7529459864533
 20
-8.25098794768764
 30
0.0
 10
204.3031299873079
 20
-8.555611098947706
 30
0.0
  0
SPLINE
  5
F7
330
1F
100
AcDbEntity
  8
0
  6
Continuous
 62
     7
370
    25
100
AcDbSpline
210
0.0
220
0.0
230
1.0
 70
     8
 71
     3
 72
    13
 73
     9
 74
     0
 42
0.00000001
 43
0.00000001
 40
0.0
 40
0.0
 40
0.0
 40
0.0
 40
0.0780312103908632
 40
0.2857642217557764
 40
0.4935127690575833
 40
0.7012583674824207
 40
0.9089828172644214
 40
1.0
 40
1.0
 40
1.0
 40
1.0
 10
236.4680660005094
 20
-64.27021999781536
 30
0.0
 10
237.1817012780448
 20
-63.92281790009892
 30
0.0
 10
239.7951610549833
 20
-62.65056940372178
 30
0.0
 10
244.2709200360612
 20
-60.36933264084907
 30
0.0
 10
249.8941522752643
 20
-57.42959875381352
 30
0.0
 10
255.4723201170947
 20
-54.40124140622203
 30
0.0
 10
259.9800796337905
 20
-51.89147113331094
 30
0.0
 10
262.6113984179939
 20
-50.36291012315289
 30
0.0
 10
263.4130785206268
 20
-49.89720564262372
 30
0.0
  0
LINE
  5
F8
330
1F
100
AcDbEntity
  8
0
  6
Continuous
 62
     7
370
    25
100
AcDbLine
 10
236.4957394632
 20
-4.5856568209
 30
0.0
 11
236.4957394632
 21
8.0391400064
 31
0.0
  0
LINE
  5
F9
330
1F
100
AcDbEntity
  8
0
  6
Continuous
 62
     7
370
    25
100
AcDbLine
 10
222.4957394632
 20
8.0391400064
 30
0.0
 11
222.4957394632
 21
-4.8856464822
 31
0.0
  0
LINE
  5
FA
330
1F
100
AcDbEntity
  8
0
  6
Continuous
 62
     7
370
    25
100
AcDbLine
 10
247.8988741701
 20
17.8041040345
 30
0.0
 11
235.1332044483
 21
10.4346397675
 31
0.0
  0
LINE
  5
FB
330
1F
100
AcDbEntity
  8
0
  6
Continuous
 62
     7
370
    25
100
AcDbLine
 10
263.418506564
 20
-49.9066418254
 30
0.0
 11
281.0961760937
 21
-39.7015404276
 31
0.0
  0
SPLINE
  5
FC
330
1F
100
AcDbEntity
  8
0
  6
Continuous
 62
     7
370
    25
100
AcDbSpline
210
0.0
220
0.0
230
1.0
 70
     8
 71
     3
 72
    13
 73
     9
 74
     0
 42
0.00000001
 43
0.00000001
 40
0.0
 40
0.0
 40
0.0
 40
0.0
 40
0.0780856059595273
 40
0.2858062705944423
 40
0.4935424702428607
 40
0.7012757211892762
 40
0.9089878247508335
 40
1.0
 40
1.0
 40
1.0
 40
1.0
 10
274.8509332712065
 20
32.16847346637418
 30
0.0
 10
274.136757784796
 20
31.82080916974288
 30
0.0
 10
271.5227570376321
 20
30.54830017377591
 30
0.0
 10
267.0464599908136
 20
28.26679642835947
 30
0.0
 10
261.4232286499785
 20
25.32706053706387
 30
0.0
 10
255.8450605598007
 20
22.29870374056238
 30
0.0
 10
251.3372975407628
 20
19.78893131204152
 30
0.0
 10
248.7059752184122
 20
18.26036823807403
 30
0.0
 10
247.9042915745777
 20
17.79466169784505
 30
0.0
  0
SPLINE
  5
FD
330
1F
100
AcDbEntity
  8
0
  6
Continuous
 62
     7
370
    25
100
AcDbSpline
210
0.0
220
0.0
230
1.0
 70
     8
 71
     3
 72
    13
 73
     9
 74
     0
 42
0.00000001
 43
0.00000001
 40
0.0
 40
0.0
 40
0.0
 40
0.0
 40
0.1166635110336059
 40
0.3242832489250414
 40
0.5318222726867261
 40
0.7392627805194054
 40
0.9465868702987645
 40
1.0
 40
1.0
 40
1.0
 40
1.0
 10
281.0907480502905
 20
-39.69210424483996
 30
0.0
 10
282.1207605154269
 20
-39.09928896314148
 30
0.0
 10
284.9838304305047
 20
-37.45147240200421
 30
0.0
 10
289.6295187042687
 20
-34.6645221702897
 30
0.0
 10
295.0303283315377
 20
-31.34193103950622
 30
0.0
 10
300.3739696837281
 20
-27.93782035683641
 30
0.0
 10
304.3686228772989
 20
-25.33869424893145
 30
0.0
 10
306.5644913729969
 20
-23.8515290742369
 30
0.0
 10
307.0143243849514
 20
-23.54687695544327
 30
0.0
  0
LINE
  5
FE
330
1F
100
AcDbEntity
  8
0
  6
Continuous
 62
     7
370
    25
100
AcDbLine
 10
288.821641271
 20
25.3215243691
 30
0.0
 11
288.821641271
 21
38.2462401438
 31
0.0
  0
LINE
  5
FF
330
1F
100
AcDbEntity
  8
0
  6
Continuous
 62
     7
370
    25
100
AcDbLine
 10
274.821641271
 20
38.2462401438
 30
0.0
 11
274.821641271
 21
25.6209771912
 31
0.0
  0
LWPOLYLINE
  5
100
330
1F
100
AcDbEntity
  8
0
  6
Continuous
 62
     7
370
    25
100
AcDbPolyline
 90
      114
 70
   128
 43
0.0
 10
198.2416197347
 20
-22.9090970347
 10
198.276808322
 20
-21.4682051911
 10
198.3822653179
 20
-20.0723949397
 10
198.5576647608
 20
-18.72598065
 10
198.8024645012
 20
-17.4331240113
 10
199.1159078772
 20
-16.1978211695
 10
199.4970260531
 20
-15.0238903749
 10
199.9446410145
 20
-13.9149601802
 10
200.4573692093
 20
-12.8744582251
 10
201.0336258239
 20
-11.9056006417
 10
201.6716296823
 20
-11.011382113
 10
202.369408751
 20
-10.1945666175
 10
203.1248062349
 20
-9.4576788848
 10
203.9354872437
 20
-8.8029965929
 10
204.7989460089
 20
-8.2325433271
 10
205.7125136289
 20
-7.7480823258
 10
206.6733663185
 20
-7.3511110302
 10
207.6785341372
 20
-7.0428564558
 10
208.7249101687
 20
-6.8242713998
 10
209.8092601249
 20
-6.6960314961
 10
210.928232342
 20
-6.658533127
 10
212.0783681411
 20
-6.7118921977
 10
213.2561125184
 20
-6.8559437783
 10
214.4578251334
 20
-7.0902426138
 10
215.6797915614
 20
-7.4140644998
 10
216.9182347741
 20
-7.8264085215
 10
218.1693268146
 20
-8.3260001471
 10
219.4292006291
 20
-8.9112951675
 10
220.6939620197
 20
-9.5804844693
 10
221.9597016815
 20
-10.3314996268
 10
223.2225072858
 20
-11.1620192952
 10
224.4784755728
 20
-12.0694763857
 10
225.7237244165
 20
-13.0510660006
 10
226.9544048241
 20
-14.1037541024
 10
228.166712833
 20
-15.2242868928
 10
229.3569012685
 20
-16.4092008689
 10
230.5212913265
 20
-17.6548335297
 10
231.656283944
 20
-18.9573346959
 10
232.7583709239
 20
-20.3126784111
 10
233.8241457785
 20
-21.7166753855
 10
234.8503142587
 20
-23.164985945
 10
235.8337045366
 20
-24.6531334446
 10
236.7712770093
 20
-26.1765181056
 10
237.6601336939
 20
-27.7304312335
 10
238.4975271853
 20
-29.3100697717
 10
239.2808691483
 20
-30.910551148
 10
240.0077383178
 20
-32.5269283663
 10
240.6758879827
 20
-34.1542052972
 10
241.2832529309
 20
-35.787352121
 10
241.8279558319
 20
-37.4213208743
 10
242.3083130405
 20
-39.0510610535
 10
242.7228397999
 20
-40.6715352251
 10
243.0702548318
 20
-42.2777345961
 10
243.3494842961
 20
-43.8646944965
 10
243.5596651106
 20
-45.4275097242
 10
243.7001476184
 20
-46.9613497067
 10
243.7704975962
 20
-48.4614734327
 10
243.7704975962
 20
-49.9232441057
 10
243.7001476184
 20
-51.3421434762
 10
243.5596651106
 20
-52.7137858077
 10
243.3494842961
 20
-54.0339314323
 10
243.0702548318
 20
-55.2984998555
 10
242.7228397999
 20
-56.5035823688
 10
242.3083130405
 20
-57.6454541313
 10
241.8279558319
 20
-58.7205856827
 10
241.2832529309
 20
-59.725653853
 10
240.6758879827
 20
-60.6575520341
 10
240.0077383178
 20
-61.5133997822
 10
239.2808691483
 20
-62.2905517208
 10
238.4975271853
 20
-62.986605718
 10
237.6601336939
 20
-63.5994103106
 10
236.7712770093
 20
-64.1270713548
 10
235.8337045366
 20
-64.5679578805
 10
234.8503142587
 20
-64.9207071328
 10
233.8241457785
 20
-65.184228784
 10
232.7583709239
 20
-65.3577083037
 10
231.656283944
 20
-65.4406094766
 10
230.5212913265
 20
-65.43267606
 10
229.3569012685
 20
-65.3339325757
 10
228.166712833
 20
-65.144684234
 10
226.9544048241
 20
-64.8655159908
 10
225.7237244165
 20
-64.497290739
 10
224.4784755728
 20
-64.041146642
 10
223.2225072858
 20
-63.4984936148
 10
221.9597016815
 20
-62.8710089669
 10
220.6939620197
 20
-62.1606322175
 10
219.4292006291
 20
-61.3695591003
 10
218.1693268146
 20
-60.5002347769
 10
216.9182347741
 20
-59.5553462792
 10
215.6797915614
 20
-58.5378142032
 10
214.4578251334
 20
-57.4507836823
 10
213.2561125184
 20
-56.2976146655
 10
212.0783681411
 20
-55.0818715322
 10
210.928232342
 20
-53.8073120748
 10
209.8092601249
 20
-52.4778758834
 10
208.7249101687
 20
-51.0976721692
 10
207.6785341372
 20
-49.6709670628
 10
206.6733663185
 20
-48.2021704278
 10
205.7125136289
 20
-46.6958222305
 10
204.7989460089
 20
-45.1565785069
 10
203.9354872437
 20
-43.589196971
 10
203.1248062349
 20
-41.9985223094
 10
202.369408751
 20
-40.3894712064
 10
201.6716296823
 20
-38.7670171466
 10
201.0336258239
 20
-37.1361750425
 10
200.4573692093
 20
-35.5019857338
 10
199.9446410145
 20
-33.8695004058
 10
199.4970260531
 20
-32.2437649771
 10
199.1159078772
 20
-30.6298045029
 10
198.8024645012
 20
-29.0326076424
 10
198.5576647608
 20
-27.4571112396
 10
198.3822653179
 20
-25.9081850636
 10
198.276808322
 20
-24.3906167564
 10
198.2416197347
 20
-22.9090970347
  0
SPLINE
  5
101
330
1F
100
AcDbEntity
  8
0
  6
Continuous
 62
     7
370
    25
100
AcDbSpline
210
0.0
220
0.0
230
1.0
 70
     8
 71
     3
 72
    17
 73
    13
 74
     0
 42
0.00000001
 43
0.00000001
 40
0.0
 40
0.0
 40
0.0
 40
0.0
 40
0.1066187075042475
 40
0.2132345553549696
 40
0.3198965751589632
 40
0.4265518341393824
 40
0.5322672256205265
 40
0.6379839432149369
 40
0.7429780576242359
 40
0.8479788525823149
 40
0.9539878354262354
 40
1.0
 40
1.0
 40
1.0
 40
1.0
 10
229.579750063826
 20
-8.932198962739852
 30
0.0
 10
229.1864201652439
 20
-8.898541250609556
 30
0.0
 10
228.3997709177034
 20
-8.831226729092958
 30
0.0
 10
227.249004023725
 20
-8.591467726493086
 30
0.0
 10
226.162076514167
 20
-8.264546553939875
 30
0.0
 10
225.1697190132791
 20
-7.857950595366484
 30
0.0
 10
224.304324802316
 20
-7.388388714634504
 30
0.0
 10
223.5865553688679
 20
-6.872236864297665
 30
0.0
 10
223.0355387480509
 20
-6.320844250150938
 30
0.0
 10
222.6708655730168
 20
-5.743619244812732
 30
0.0
 10
222.4966776868659
 20
-5.261860838243819
 30
0.0
 10
222.5147647143687
 20
-4.973171989698659
 30
0.0
 10
222.5202391059271
 20
-4.885794680452514
 30
0.0
  0
SPLINE
  5
102
330
1F
100
AcDbEntity
  8
0
  6
Continuous
 62
     7
370
    25
100
AcDbSpline
210
0.0
220
0.0
230
1.0
 70
     8
 71
     3
 72
    17
 73
    13
 74
     0
 42
0.00000001
 43
0.00000001
 40
0.0
 40
0.0
 40
0.0
 40
0.0
 40
0.0827865139139416
 40
0.1912268765636943
 40
0.3007879924978836
 40
0.4103363604372643
 40
0.5180647442774607
 40
0.6257898215921791
 40
0.7315996686746031
 40
0.8374174450371256
 40
0.9187076479316094
 40
1.0
 40
1.0
 40
1.0
 40
1.0
 10
236.4777221026055
 20
-4.585190383159888
 30
0.0
 10
236.473481184623
 20
-4.78985874598887
 30
0.0
 10
236.4636851748477
 20
-5.262618014435362
 30
0.0
 10
236.2175086235487
 20
-5.992393701027593
 30
0.0
 10
235.7765674435532
 20
-6.73741496095974
 30
0.0
 10
235.151258373251
 20
-7.406587669295568
 30
0.0
 10
234.3644907897107
 20
-7.969710515393767
 30
0.0
 10
233.4512831862455
 20
-8.413593809137526
 30
0.0
 10
232.431906086328
 20
-8.726658449779299
 30
0.0
 10
231.4251215571873
 20
-8.89676733228455
 30
0.0
 10
230.4661922660293
 20
-8.961839226542304
 30
0.0
 10
229.8752334018496
 20
-8.942079137743347
 30
0.0
 10
229.579750063826
 20
-8.932198962739852
 30
0.0
  0
LWPOLYLINE
  5
103
330
1F
100
AcDbEntity
  8
0
  6
Continuous
 62
     7
370
    25
100
AcDbPolyline
 90
      101
 70
   128
 43
0.0
 10
203.191367203
 20
-25.7665254261
 10
203.2265291085
 20
-24.4947942128
 10
203.331876057
 20
-23.2686790136
 10
203.5069922921
 20
-22.0930187449
 10
203.7511867102
 20
-20.9724532008
 10
204.0634955874
 20
-19.9114047415
 10
204.4426863833
 20
-18.9140608405
 10
204.887262605
 20
-17.9843575585
 10
205.3954697133
 20
-17.1259640097
 10
205.9653020469
 20
-16.3422678813
 10
206.5945107379
 20
-15.6363620638
 10
207.2806125871
 20
-15.011032445
 10
208.0208998639
 20
-14.4687469152
 10
208.8124509927
 20
-14.0116456277
 10
209.6521420827
 20
-13.6415325523
 10
210.5366592569
 20
-13.3598683564
 10
211.4625117301
 20
-13.1677646398
 10
212.4260455855
 20
-13.0659795482
 10
213.4234581952
 20
-13.0549147807
 10
214.4508132273
 20
-13.134614005
 10
215.5040561809
 20
-13.3047626846
 10
216.5790303871
 20
-13.5646893205
 10
217.671493414
 20
-13.9133681009
 10
218.777133809
 20
-14.3494229501
 10
219.8915881147
 20
-14.8711329586
 10
221.0104580889
 20
-15.4764391756
 10
222.1293280632
 20
-16.1629527338
 10
223.2437823688
 20
-16.9279642779
 10
224.3494227638
 20
-17.7684546568
 10
225.4418857907
 20
-18.681106839
 10
226.516859997
 20
-19.6623190033
 10
227.5701029505
 20
-20.7082187535
 10
228.5974579827
 20
-21.8146784012
 10
229.5948705924
 20
-22.9773312556
 10
230.5584044478
 20
-24.191588857
 10
231.4842569209
 20
-25.4526590856
 10
232.3687740951
 20
-26.755565073
 10
233.2084651851
 20
-28.0951648448
 10
234.0000163139
 20
-29.4661716126
 10
234.7403035907
 20
-30.8631746391
 10
235.4264054399
 20
-32.2806605914
 10
236.0556141309
 20
-33.7130353003
 10
236.6254464645
 20
-35.154645837
 10
237.1336535728
 20
-36.5998028233
 10
237.5782297945
 20
-38.042802885
 10
237.9574205904
 20
-39.47795116
 10
238.2697294676
 20
-40.8995837737
 10
238.5139238857
 20
-42.3020901917
 10
238.6890401209
 20
-43.6799353619
 10
238.7943870693
 20
-45.0276815588
 10
238.8295489748
 20
-46.340009844
 10
238.7943870693
 20
-47.6117410573
 10
238.6890401209
 20
-48.8378562566
 10
238.5139238857
 20
-50.0135165252
 10
238.2697294676
 20
-51.1340820694
 10
237.9574205904
 20
-52.1951305287
 10
237.5782297945
 20
-53.1924744297
 10
237.1336535728
 20
-54.1221777116
 10
236.6254464645
 20
-54.9805712604
 10
236.0556141309
 20
-55.7642673888
 10
235.4264054399
 20
-56.4701732063
 10
234.7403035907
 20
-57.0955028252
 10
234.0000163139
 20
-57.6377883549
 10
233.2084651851
 20
-58.0948896425
 10
232.3687740951
 20
-58.4650027178
 10
231.4842569209
 20
-58.7466669137
 10
230.5584044478
 20
-58.9387706303
 10
229.5948705924
 20
-59.040555722
 10
228.5974579827
 20
-59.0516204895
 10
227.5701029505
 20
-58.9719212652
 10
226.516859997
 20
-58.8017725855
 10
225.4418857907
 20
-58.5418459496
 10
224.3494227638
 20
-58.1931671692
 10
223.2437823688
 20
-57.7571123201
 10
222.1293280632
 20
-57.2354023115
 10
221.0104580889
 20
-56.6300960946
 10
219.8915881147
 20
-55.9435825364
 10
218.777133809
 20
-55.1785709923
 10
217.671493414
 20
-54.3380806134
 10
216.5790303871
 20
-53.4254284312
 10
215.5040561809
 20
-52.4442162669
 10
214.4508132273
 20
-51.3983165166
 10
213.4234581952
 20
-50.291856869
 10
212.4260455855
 20
-49.1292040146
 10
211.4625117301
 20
-47.9149464131
 10
210.5366592569
 20
-46.6538761846
 10
209.6521420827
 20
-45.3509701971
 10
208.8124509927
 20
-44.0113704253
 10
208.0208998639
 20
-42.6403636575
 10
207.2806125871
 20
-41.2433606311
 10
206.5945107379
 20
-39.8258746787
 10
205.9653020469
 20
-38.3934999699
 10
205.3954697133
 20
-36.9518894332
 10
204.887262605
 20
-35.5067324468
 10
204.4426863833
 20
-34.0637323851
 10
204.0634955874
 20
-32.6285841101
 10
203.7511867102
 20
-31.2069514964
 10
203.5069922921
 20
-29.8044450784
 10
203.331876057
 20
-28.4265999083
 10
203.2265291085
 20
-27.0788537113
 10
203.191367203
 20
-25.7665254261
  0
LWPOLYLINE
  5
104
330
1F
100
AcDbEntity
  8
0
  6
Continuous
 62
     7
370
    25
100
AcDbPolyline
 90
       54
 70
   128
 43
0.0
 10
234.4454869315
 20
10.8965683978
 10
234.9961674576
 20
10.5385552657
 10
235.4696340317
 20
10.1454558222
 10
235.8592402211
 20
9.7227883217
 10
236.1595168087
 20
9.2764860895
 10
236.3662485696
 20
8.8128142306
 10
236.476533443
 20
8.3382816815
 10
236.488823271
 20
7.859549839
 10
236.4029455314
 20
7.3833390487
 10
236.2201057594
 20
6.9163342664
 10
235.9428706245
 20
6.4650912155
 10
235.5751319005
 20
6.0359443592
 10
235.1220518328
 20
5.6349179788
 10
234.5899906725
 20
5.2676416055
 10
233.9864173919
 20
4.9392709945
 10
233.3198048369
 20
4.6544157495
 10
232.5995107865
 20
4.4170746136
 10
231.8356465903
 20
4.2305793362
 10
231.0389352271
 20
4.0975479022
 10
230.2205607781
 20
4.0198477811
 10
229.3920114268
 20
3.9985697126
 10
228.5649181896
 20
4.0340123939
 10
227.7508916428
 20
4.1256782876
 10
226.9613589346
 20
4.2722806053
 10
226.2074033736
 20
4.471761372
 10
225.4996088432
 20
4.721320315
 10
224.847911227
 20
5.0174541736
 10
224.2614589312
 20
5.3560058778
 10
223.7484844603
 20
5.7322229036
 10
223.3161888515
 20
6.1408239887
 10
222.9706405875
 20
6.5760732695
 10
222.7166904086
 20
7.0318608002
 10
222.5579032186
 20
7.501788323
 10
222.4965080415
 20
7.9792590856
 10
222.533366731
 20
8.457570445
 10
222.667961872
 20
8.9300079582
 10
222.8984040437
 20
9.3899396383
 10
223.2214583432
 20
9.8309090524
 10
223.6325897962
 20
10.2467259568
 10
224.1260270183
 20
10.6315531936
 10
224.6948432326
 20
10.9799886318
 10
225.3310535063
 20
11.2871410017
 10
226.0257268417
 20
11.5486985574
 10
226.769111548
 20
11.760989604
 10
227.5507721333
 20
11.9210340407
 10
228.3597357965
 20
12.0265851944
 10
229.1846464611
 20
12.0761613582
 10
230.0139241895
 20
12.0690665916
 10
230.8359277402
 20
12.0054004893
 10
231.6391179852
 20
11.886056784
 10
232.4122198941
 20
11.7127107997
 10
233.1443808108
 20
11.4877959341
 10
233.8253228009
 20
11.2144694988
 10
234.4454869315
 20
10.8965683978
  0
LWPOLYLINE
  5
105
330
1F
100
AcDbEntity
  8
0
  6
Continuous
 62
     7
370
    25
100
AcDbPolyline
 90
       45
 70
   128
 43
0.0
 10
233.0312733691
 20
10.0801602859
 10
233.4984456678
 20
9.7689181714
 10
233.884134411
 20
9.4224627617
 10
234.1804880882
 20
9.0478468899
 10
234.381473793
 20
8.6526966547
 10
234.4830000362
 20
8.2450561756
 10
234.4830000362
 20
7.8332238371
 10
234.381473793
 20
7.425583358
 10
234.1804880882
 20
7.0304331229
 10
233.884134411
 20
6.6558172511
 10
233.4984456678
 20
6.3093618414
 10
233.0312733691
 20
5.9981197268
 10
232.4921277957
 20
5.7284268994
 10
231.8919843968
 20
5.5057735272
 10
231.2430603612
 20
5.334692191
 10
230.5585659109
 20
5.2186656132
 10
229.8524353792
 20
5.1600557606
 10
229.1390435472
 20
5.1600557606
 10
228.4329130154
 20
5.2186656132
 10
227.7484185652
 20
5.334692191
 10
227.0994945296
 20
5.5057735272
 10
226.4993511306
 20
5.7284268994
 10
225.9602055572
 20
5.9981197268
 10
225.4930332585
 20
6.3093618414
 10
225.1073445153
 20
6.6558172511
 10
224.8109908382
 20
7.0304331229
 10
224.6100051333
 20
7.425583358
 10
224.5084788901
 20
7.8332238371
 10
224.5084788901
 20
8.2450561756
 10
224.6100051333
 20
8.6526966547
 10
224.8109908382
 20
9.0478468899
 10
225.1073445153
 20
9.4224627617
 10
225.4930332585
 20
9.7689181714
 10
225.9602055572
 20
10.0801602859
 10
226.4993511306
 20
10.3498531134
 10
227.0994945296
 20
10.5725064855
 10
227.7484185652
 20
10.7435878218
 10
228.4329130154
 20
10.8596143995
 10
229.1390435472
 20
10.9182242522
 10
229.8524353792
 20
10.9182242522
 10
230.5585659109
 20
10.8596143995
 10
231.2430603612
 20
10.7435878218
 10
231.8919843968
 20
10.5725064855
 10
232.4921277957
 20
10.3498531134
 10
233.0312733691
 20
10.0801602859
  0
LWPOLYLINE
  5
106
330
1F
100
AcDbEntity
  8
0
  6
Continuous
 62
     7
370
    25
100
AcDbPolyline
 90
       44
 70
   128
 43
0.0
 10
288.821641271
 20
31.0447768389
 10
289.990426576
 20
30.42351301
 10
291.2561662378
 20
29.6724978525
 10
292.5189718421
 20
28.8419781841
 10
293.7749401291
 20
27.9345210936
 10
295.0201889728
 20
26.9529314788
 10
296.2508693804
 20
25.9002433769
 10
297.4631773893
 20
24.7797105865
 10
298.6533658248
 20
23.5947966104
 10
299.8177558828
 20
22.3491639496
 10
300.9527485003
 20
21.0466627834
 10
302.0548354802
 20
19.6913190682
 10
303.1206103348
 20
18.2873220938
 10
304.146778815
 20
16.8390115343
 10
305.1301690929
 20
15.3508640347
 10
306.0677415656
 20
13.8274793737
 10
306.9565982502
 20
12.2735662458
 10
307.7939917416
 20
10.6939277076
 10
308.5773337046
 20
9.0934463313
 10
309.3042028741
 20
7.477069113
 10
309.972352539
 20
5.8497921821
 10
310.5797174872
 20
4.2166453584
 10
311.1244203882
 20
2.582676605
 10
311.6047775968
 20
0.9529364258
 10
312.0193043562
 20
-0.6675377457
 10
312.366719388
 20
-2.2737371168
 10
312.6459488523
 20
-3.8606970172
 10
312.8561296668
 20
-5.4235122449
 10
312.9966121747
 20
-6.9573522274
 10
313.0669621525
 20
-8.4574759534
 10
313.0669621525
 20
-9.9192466264
 10
312.9966121747
 20
-11.3381459969
 10
312.8561296668
 20
-12.7097883284
 10
312.6459488523
 20
-14.029933953
 10
312.366719388
 20
-15.2945023762
 10
312.0193043562
 20
-16.4995848895
 10
311.6047775968
 20
-17.641456652
 10
311.1244203882
 20
-18.7165882034
 10
310.5797174872
 20
-19.7216563737
 10
309.972352539
 20
-20.6535545548
 10
309.3042028741
 20
-21.5094023029
 10
308.5773337046
 20
-22.2865542415
 10
307.7939917416
 20
-22.9826082386
 10
307.0176575742
 20
-23.5547741797
  0
SPLINE
  5
107
330
1F
100
AcDbEntity
  8
0
  6
Continuous
 62
     7
370
    25
100
AcDbSpline
210
0.0
220
0.0
230
1.0
 70
     8
 71
     3
 72
    17
 73
    13
 74
     0
 42
0.00000001
 43
0.00000001
 40
0.0
 40
0.0
 40
0.0
 40
0.0
 40
0.1055677304984039
 40
0.2111263947105924
 40
0.3167873970101715
 40
0.4224360165645199
 40
0.5261970412398389
 40
0.629959443384468
 40
0.7323852412370713
 40
0.8348227090419476
 40
0.9388192454112424
 40
1.0
 40
1.0
 40
1.0
 40
1.0
 10
282.0064012902449
 20
21.56260202661856
 30
0.0
 10
281.614343038103
 20
21.60880852634986
 30
0.0
 10
280.8302602042629
 20
21.70121755754158
 30
0.0
 10
279.6774577365713
 20
21.96753744350926
 30
0.0
 10
278.5836967229576
 20
22.31258476896257
 30
0.0
 10
277.5832994688639
 20
22.72689915987186
 30
0.0
 10
276.7091022779837
 20
23.19272257911489
 30
0.0
 10
275.9823201322235
 20
23.6922751869395
 30
0.0
 10
275.4195819383082
 20
24.21521109709185
 30
0.0
 10
275.0346826272835
 20
24.75299343989393
 30
0.0
 10
274.8358470472038
 20
25.22462508673
 30
0.0
 10
274.8425792717887
 20
25.51399907787741
 30
0.0
 10
274.8450728505234
 20
25.62118160299374
 30
0.0
  0
SPLINE
  5
108
330
1F
100
AcDbEntity
  8
0
  6
Continuous
 62
     7
370
    25
100
AcDbSpline
210
0.0
220
0.0
230
1.0
 70
     8
 71
     3
 72
    17
 73
    13
 74
     0
 42
0.00000001
 43
0.00000001
 40
0.0
 40
0.0
 40
0.0
 40
0.0
 40
0.074493147455189
 40
0.1837110736254301
 40
0.2928891233475487
 40
0.4020588576241399
 40
0.5094677997698733
 40
0.6168809046132754
 40
0.723685606770137
 40
0.8305015027100398
 40
0.9152499949443365
 40
1.0
 40
1.0
 40
1.0
 40
1.0
 10
288.7998271522113
 20
25.32191823416981
 30
0.0
 10
288.7992027834316
 20
25.14988295443538
 30
0.0
 10
288.7976629980585
 20
24.72561861575274
 30
0.0
 10
288.5694687140738
 20
24.0689843652971
 30
0.0
 10
288.1458701354904
 20
23.38800884889889
 30
0.0
 10
287.5409852612788
 20
22.78753356836208
 30
0.0
 10
286.7778892166033
 20
22.29230994003443
 30
0.0
 10
285.8872469756182
 20
21.91087891029805
 30
0.0
 10
284.8874438091855
 20
21.65371490612519
 30
0.0
 10
283.8845571252788
 20
21.52788640735941
 30
0.0
 10
282.9161771377957
 20
21.49995855296754
 30
0.0
 10
282.309661710535
 20
21.54172074448849
 30
0.0
 10
282.0064012902449
 20
21.56260202661856
 30
0.0
  0
LWPOLYLINE
  5
109
330
1F
100
AcDbEntity
  8
0
  6
Continuous
 62
     7
370
    25
100
AcDbPolyline
 90
       54
 70
   128
 43
0.0
 10
276.8718938027
 20
35.3888117524
 10
276.3212132766
 20
35.7468248845
 10
275.8477467024
 20
36.139924328
 10
275.4581405131
 20
36.5625918285
 10
275.1578639254
 20
37.0088940607
 10
274.9511321645
 20
37.4725659196
 10
274.8408472911
 20
37.9470984687
 10
274.8285574631
 20
38.4258303112
 10
274.9144352027
 20
38.9020411014
 10
275.0972749747
 20
39.3690458837
 10
275.3745101096
 20
39.8202889347
 10
275.7422488336
 20
40.249435791
 10
276.1953289013
 20
40.6504621714
 10
276.7273900617
 20
41.0177385447
 10
277.3309633422
 20
41.3461091557
 10
277.9975758973
 20
41.6309644007
 10
278.7178699476
 20
41.8683055365
 10
279.4817341439
 20
42.054800814
 10
280.278445507
 20
42.187832248
 10
281.096819956
 20
42.265532369
 10
281.9253693074
 20
42.2868104376
 10
282.7524625445
 20
42.2513677563
 10
283.5664890913
 20
42.1597018626
 10
284.3560217995
 20
42.0130995448
 10
285.1099773605
 20
41.8136187781
 10
285.8177718909
 20
41.5640598352
 10
286.4694695071
 20
41.2679259765
 10
287.055921803
 20
40.9293742724
 10
287.5688962738
 20
40.5531572466
 10
288.0011918826
 20
40.1445561615
 10
288.3467401466
 20
39.7093068807
 10
288.6006903255
 20
39.25351935
 10
288.7594775156
 20
38.7835918272
 10
288.8208726927
 20
38.3061210646
 10
288.7840140031
 20
37.8278097052
 10
288.6494188621
 20
37.3553721919
 10
288.4189766904
 20
36.8954405119
 10
288.0959223909
 20
36.4544710977
 10
287.684790938
 20
36.0386541934
 10
287.1913537158
 20
35.6538269566
 10
286.6225375015
 20
35.3053915184
 10
285.9863272278
 20
34.9982391485
 10
285.2916538924
 20
34.7366815928
 10
284.5482691862
 20
34.5243905461
 10
283.7666086008
 20
34.3643461094
 10
282.9576449376
 20
34.2587949558
 10
282.132734273
 20
34.2092187919
 10
281.3034565446
 20
34.2163135586
 10
280.4814529939
 20
34.2799796609
 10
279.6782627489
 20
34.3993233661
 10
278.90516084
 20
34.5726693504
 10
278.1729999233
 20
34.7975842161
 10
277.4920579332
 20
35.0709106514
 10
276.8718938027
 20
35.3888117524
  0
LWPOLYLINE
  5
10A
330
1F
100
AcDbEntity
  8
0
  6
Continuous
 62
     7
370
    25
100
AcDbPolyline
 90
       45
 70
   128
 43
0.0
 10
278.286107365
 20
36.2052198643
 10
277.8189350663
 20
36.5164619788
 10
277.4332463231
 20
36.8629173885
 10
277.136892646
 20
37.2375332603
 10
276.9359069411
 20
37.6326834954
 10
276.8343806979
 20
38.0403239746
 10
276.8343806979
 20
38.4521563131
 10
276.9359069411
 20
38.8597967922
 10
277.136892646
 20
39.2549470273
 10
277.4332463231
 20
39.6295628991
 10
277.8189350663
 20
39.9760183088
 10
278.286107365
 20
40.2872604234
 10
278.8252529384
 20
40.5569532508
 10
279.4253963374
 20
40.779606623
 10
280.074320373
 20
40.9506879592
 10
280.7588148232
 20
41.066714537
 10
281.464945355
 20
41.1253243896
 10
282.178337187
 20
41.1253243896
 10
282.8844677187
 20
41.066714537
 10
283.568962169
 20
40.9506879592
 10
284.2178862046
 20
40.779606623
 10
284.8180296035
 20
40.5569532508
 10
285.3571751769
 20
40.2872604234
 10
285.8243474756
 20
39.9760183088
 10
286.2100362188
 20
39.6295628991
 10
286.506389896
 20
39.2549470273
 10
286.7073756008
 20
38.8597967922
 10
286.808901844
 20
38.4521563131
 10
286.808901844
 20
38.0403239746
 10
286.7073756008
 20
37.6326834954
 10
286.506389896
 20
37.2375332603
 10
286.2100362188
 20
36.8629173885
 10
285.8243474756
 20
36.5164619788
 10
285.3571751769
 20
36.2052198643
 10
284.8180296035
 20
35.9355270368
 10
284.2178862046
 20
35.7128736646
 10
283.568962169
 20
35.5417923284
 10
282.8844677187
 20
35.4257657507
 10
282.178337187
 20
35.367155898
 10
281.464945355
 20
35.367155898
 10
280.7588148232
 20
35.4257657507
 10
280.074320373
 20
35.5417923284
 10
279.4253963374
 20
35.7128736646
 10
278.8252529384
 20
35.9355270368
 10
278.286107365
 20
36.2052198643
  0
LWPOLYLINE
  5
10B
330
1F
100
AcDbEntity
  8
0
  6
Continuous
 62
     1
370
    25
100
AcDbPolyline
 90
       53
 70
   128
 43
0.0
 10
236.2241615305
 20
9.1538191204
 10
237.173781889
 20
9.1297260329
 10
238.3569574355
 20
9.0181019324
 10
239.5653895964
 20
8.8164329594
 10
240.795471935
 20
8.5253209735
 10
242.0435334023
 20
8.1456347672
 10
243.3058492924
 20
7.6785074734
 10
244.5786523583
 20
7.1253331835
 10
245.8581440556
 20
6.4877627871
 10
247.1405058782
 20
5.7676990447
 10
248.4219107543
 20
4.9672909097
 10
249.6985344682
 20
4.0889271144
 10
250.9665670729
 20
3.1352290416
 10
252.2222242608
 20
2.1090429013
 10
253.4617586572
 20
1.0134312363
 10
254.6814710045
 20
-0.1483362178
 10
255.8777212016
 20
-1.3727922901
 10
257.0469391676
 20
-2.6562827226
 10
258.1856354967
 20
-3.9949770752
 10
259.2904118714
 20
-5.3848801579
 10
260.3579712049
 20
-6.8218439536
 10
261.3851274804
 20
-8.3015799976
 10
262.3688152601
 20
-9.819672176
 10
263.3060988328
 20
-11.3715899049
 10
264.1941809761
 20
-12.952701652
 10
265.0304113037
 20
-14.5582887583
 10
265.8122941758
 20
-16.1835595209
 10
266.5374961465
 20
-17.8236634931
 10
267.203852928
 20
-19.4737059599
 10
267.80937585
 20
-21.1287625462
 10
268.3522577939
 20
-22.7838939125
 10
268.8308785868
 20
-24.4341604964
 10
269.2438098359
 20
-26.0746372538
 10
269.5898191922
 20
-27.7004283572
 10
269.8678740278
 20
-29.3066818071
 10
270.0771445178
 20
-30.8886039117
 10
270.2170061167
 20
-32.4414735938
 10
270.2870414226
 20
-33.96065648
 10
270.2870414226
 20
-35.4416187313
 10
270.2170061167
 20
-36.8799405745
 10
270.0771445178
 20
-38.2713294917
 10
269.8678740278
 20
-39.6116330316
 10
269.5898191922
 20
-40.8968512017
 10
269.2438098359
 20
-42.1231484058
 10
268.8308785868
 20
-43.286864891
 10
268.3522577939
 20
-44.38452767
 10
267.80937585
 20
-45.4128608856
 10
267.203852928
 20
-46.3687955875
 10
266.5374961465
 20
-47.2494788905
 10
265.8122941758
 20
-48.0522824898
 10
265.0304113037
 20
-48.7748105038
 10
264.1941809761
 20
-49.4149066248
 10
263.4184442426
 20
-49.9066778025
  0
LWPOLYLINE
  5
10C
330
1F
100
AcDbEntity
  8
0
  6
Continuous
 62
     1
370
    25
100
AcDbPolyline
 90
       59
 70
   128
 43
0.0
 10
247.8988741701
 20
17.8041040345
 10
248.4739449897
 20
18.1138431252
 10
249.4347891749
 20
18.5400539491
 10
250.4405864843
 20
18.8782586868
 10
251.4883352235
 20
19.1274480024
 10
252.5749084984
 20
19.2868782172
 10
253.6970635474
 20
19.3560735286
 10
254.8514514187
 20
19.3348274307
 10
256.0346269652
 20
19.2232033302
 10
257.243059126
 20
19.0215343572
 10
258.4731414647
 20
18.7304223713
 10
259.721202932
 20
18.350736165
 10
260.983518822
 20
17.8836088712
 10
262.256321888
 20
17.3304345813
 10
263.5358135853
 20
16.6928641849
 10
264.8181754078
 20
15.9728004425
 10
266.099580284
 20
15.1723923075
 10
267.3762039978
 20
14.2940285122
 10
268.6442366025
 20
13.3403304394
 10
269.8998937904
 20
12.3141442991
 10
271.1394281869
 20
11.218532634
 10
272.3591405342
 20
10.05676518
 10
273.5553907312
 20
8.8323091076
 10
274.7246086972
 20
7.5488186752
 10
275.8633050263
 20
6.2101243226
 10
276.9680814011
 20
4.8202212399
 10
278.0356407345
 20
3.3832574441
 10
279.0627970101
 20
1.9035214001
 10
280.0464847897
 20
0.3854292218
 10
280.9837683625
 20
-1.1664885071
 10
281.8718505057
 20
-2.7476002542
 10
282.7080808334
 20
-4.3531873605
 10
283.4899637054
 20
-5.9784581232
 10
284.2151656761
 20
-7.6185620953
 10
284.8815224577
 20
-9.2686045622
 10
285.4870453797
 20
-10.9236611484
 10
286.0299273236
 20
-12.5787925148
 10
286.5085481164
 20
-14.2290590987
 10
286.9214793656
 20
-15.869535856
 10
287.2674887219
 20
-17.4953269594
 10
287.5455435575
 20
-19.1015804093
 10
287.7548140474
 20
-20.6835025139
 10
287.8946756464
 20
-22.236372196
 10
287.9647109523
 20
-23.7555550822
 10
287.9647109523
 20
-25.2365173335
 10
287.8946756464
 20
-26.6748391767
 10
287.7548140474
 20
-28.0662280939
 10
287.5455435575
 20
-29.4065316338
 10
287.2674887219
 20
-30.6917498039
 10
286.9214793656
 20
-31.918047008
 10
286.5085481164
 20
-33.0817634932
 10
286.0299273236
 20
-34.1794262722
 10
285.4870453797
 20
-35.2077594879
 10
284.8815224577
 20
-36.1636941897
 10
284.2151656761
 20
-37.0443774928
 10
283.4899637054
 20
-37.847181092
 10
282.7080808334
 20
-38.569709106
 10
281.8718505057
 20
-39.2098052271
 10
281.0961760937
 20
-39.7015404276
  0
ENDSEC
  0
SECTION
  2
OBJECTS
  0
DICTIONARY
  5
C
330
0
100
AcDbDictionary
281
     1
  3
ACAD_GROUP
350
D
  3
ACAD_LAYOUT
350
1A
  3
ACAD_MLINESTYLE
350
17
  3
ACAD_PLOTSETTINGS
350
19
  3
ACAD_PLOTSTYLENAME
350
E
  3
ACAD_SCALELIST
350
47
  3
DWGPROPS
350
10D
  0
DICTIONARY
  5
D
102
{ACAD_REACTORS
330
C
102
}
330
C
100
AcDbDictionary
281
     1
  0
DICTIONARY
  5
1A
102
{ACAD_REACTORS
330
C
102
}
330
C
100
AcDbDictionary
281
     1
  3
Layout1
350
1E
  3
Layout2
350
26
  3
Model
350
22
  0
DICTIONARY
  5
17
102
{ACAD_REACTORS
330
C
102
}
330
C
100
AcDbDictionary
281
     1
  3
Standard
350
18
  0
DICTIONARY
  5
19
102
{ACAD_REACTORS
330
C
102
}
330
C
100
AcDbDictionary
281
     1
  0
ACDBDICTIONARYWDFLT
  5
E
102
{ACAD_REACTORS
330
C
102
}
330
C
100
AcDbDictionary
281
     1
  3
Normal
350
F
100
AcDbDictionaryWithDefault
340
F
  0
DICTIONARY
  5
47
102
{ACAD_REACTORS
330
C
102
}
330
C
100
AcDbDictionary
281
     1
  3
A0
350
48
  3
A1
350
49
  3
A2
350
4A
  3
A3
350
4B
  3
A4
350
4C
  3
A5
350
4D
  3
A6
350
4E
  3
A7
350
4F
  3
A8
350
50
  3
A9
350
51
  3
B0
350
52
  3
B1
350
53
  3
B2
350
54
  3
B3
350
55
  3
B4
350
56
  3
B5
350
57
  3
B6
350
58
  3
B7
350
59
  3
B8
350
5A
  3
B9
350
5B
  3
C0
350
5C
  3
C1
350
5D
  3
C2
350
5E
  3
C3
350
5F
  3
C4
350
60
  3
C5
350
61
  3
C6
350
62
  3
C7
350
63
  3
C8
350
64
  3
C9
350
65
  3
D0
350
66
  3
D1
350
67
  3
D2
350
68
  0
XRECORD
  5
10D
102
{ACAD_REACTORS
330
C
102
}
330
C
100
AcDbXrecord
280
     1
  1
DWGPROPS COOKIE
  2

  3

  4

  6

  7

  8
b.kav
  9

300
=
301
=
302
=
303
=
304
=
305
=
306
=
307
=
308
=
309
=
 40
0.0
 41
2459954.239345822
 42
2459954.239346181
  1

 90
        0
  0
LAYOUT
  5
1E
102
{ACAD_REACTORS
330
1A
102
}
330
1A
100
AcDbPlotSettings
  1

  2
none_device
  4

  6

 40
0.0
 41
0.0
 42
0.0
 43
0.0
 44
0.0
 45
0.0
 46
0.0
 47
0.0
 48
0.0
 49
0.0
140
0.0
141
0.0
142
1.0
143
1.0
 70
   688
 72
     1
 73
     0
 74
     5
  7

 75
    16
147
1.0
148
0.0
149
0.0
100
AcDbLayout
  1
Layout1
 70
     1
 71
     1
 10
0.0
 20
0.0
 11
420.0
 21
297.0
 12
0.0
 22
0.0
 32
0.0
 14
1.0000000000E+20
 24
1.0000000000E+20
 34
1.0000000000E+20
 15
-1.0000000000E+20
 25
-1.0000000000E+20
 35
-1.0000000000E+20
146
0.0
 13
0.0
 23
0.0
 33
0.0
 16
1.0
 26
0.0
 36
0.0
 17
0.0
 27
1.0
 37
0.0
 76
     0
330
1B
  0
LAYOUT
  5
26
102
{ACAD_REACTORS
330
1A
102
}
330
1A
100
AcDbPlotSettings
  1

  2
none_device
  4

  6

 40
0.0
 41
0.0
 42
0.0
 43
0.0
 44
0.0
 45
0.0
 46
0.0
 47
0.0
 48
0.0
 49
0.0
140
0.0
141
0.0
142
1.0
143
1.0
 70
   688
 72
     1
 73
     0
 74
     5
  7

 75
    16
147
1.0
148
0.0
149
0.0
100
AcDbLayout
  1
Layout2
 70
     1
 71
     2
 10
0.0
 20
0.0
 11
0.0
 21
0.0
 12
0.0
 22
0.0
 32
0.0
 14
0.0
 24
0.0
 34
0.0
 15
0.0
 25
0.0
 35
0.0
146
0.0
 13
0.0
 23
0.0
 33
0.0
 16
1.0
 26
0.0
 36
0.0
 17
0.0
 27
1.0
 37
0.0
 76
     0
330
23
  0
LAYOUT
  5
22
102
{ACAD_REACTORS
330
1A
102
}
330
1A
100
AcDbPlotSettings
  1

  2
none_device
  4
Letter_(8.50_x_11.00_Inches)
  6

 40
6.35
 41
6.35
 42
6.35000508
 43
6.35000508
 44
215.9
 45
279.4
 46
0.0
 47
0.0
 48
0.0
 49
0.0
140
0.0
141
0.0
142
1.0
143
1.0
 70
  1712
 72
     1
 73
     0
 74
     0
  7

 75
     0
147
1.0
148
0.0
149
0.0
100
AcDbLayout
  1
Model
 70
     1
 71
     0
 10
0.0
 20
0.0
 11
279.4
 21
215.9
 12
0.0
 22
0.0
 32
0.0
 14
0.0
 24
0.0
 34
0.0
 15
279.4
 25
215.9
 35
0.0
146
0.0
 13
0.0
 23
0.0
 33
0.0
 16
1.0
 26
0.0
 36
0.0
 17
0.0
 27
1.0
 37
0.0
 76
     0
330
1F
331
29
  0
MLINESTYLE
  5
18
102
{ACAD_REACTORS
330
17
102
}
330
17
100
AcDbMlineStyle
  2
Standard
 70
     0
  3

 62
   256
 51
90.0
 52
90.0
 71
     2
 49
0.5
 62
   256
  6
BYLAYER
 49
-0.5
 62
   256
  6
BYLAYER
  0
ACDBPLACEHOLDER
  5
F
102
{ACAD_REACTORS
330
E
102
}
330
E
  0
SCALE
  5
48
102
{ACAD_REACTORS
330
47
102
}
330
47
100
AcDbScale
 70
     0
300
1:1
140
1.0
141
1.0
290
     1
  0
SCALE
  5
49
102
{ACAD_REACTORS
330
47
102
}
330
47
100
AcDbScale
 70
     0
300
1:2
140
1.0
141
2.0
290
     0
  0
SCALE
  5
4A
102
{ACAD_REACTORS
330
47
102
}
330
47
100
AcDbScale
 70
     0
300
1:4
140
1.0
141
4.0
290
     0
  0
SCALE
  5
4B
102
{ACAD_REACTORS
330
47
102
}
330
47
100
AcDbScale
 70
     0
300
1:5
140
1.0
141
5.0
290
     0
  0
SCALE
  5
4C
102
{ACAD_REACTORS
330
47
102
}
330
47
100
AcDbScale
 70
     0
300
1:8
140
1.0
141
8.0
290
     0
  0
SCALE
  5
4D
102
{ACAD_REACTORS
330
47
102
}
330
47
100
AcDbScale
 70
     0
300
1:10
140
1.0
141
10.0
290
     0
  0
SCALE
  5
4E
102
{ACAD_REACTORS
330
47
102
}
330
47
100
AcDbScale
 70
     0
300
1:16
140
1.0
141
16.0
290
     0
  0
SCALE
  5
4F
102
{ACAD_REACTORS
330
47
102
}
330
47
100
AcDbScale
 70
     0
300
1:20
140
1.0
141
20.0
290
     0
  0
SCALE
  5
50
102
{ACAD_REACTORS
330
47
102
}
330
47
100
AcDbScale
 70
     0
300
1:30
140
1.0
141
30.0
290
     0
  0
SCALE
  5
51
102
{ACAD_REACTORS
330
47
102
}
330
47
100
AcDbScale
 70
     0
300
1:40
140
1.0
141
40.0
290
     0
  0
SCALE
  5
52
102
{ACAD_REACTORS
330
47
102
}
330
47
100
AcDbScale
 70
     0
300
1:50
140
1.0
141
50.0
290
     0
  0
SCALE
  5
53
102
{ACAD_REACTORS
330
47
102
}
330
47
100
AcDbScale
 70
     0
300
1:100
140
1.0
141
100.0
290
     0
  0
SCALE
  5
54
102
{ACAD_REACTORS
330
47
102
}
330
47
100
AcDbScale
 70
     0
300
2:1
140
2.0
141
1.0
290
     0
  0
SCALE
  5
55
102
{ACAD_REACTORS
330
47
102
}
330
47
100
AcDbScale
 70
     0
300
4:1
140
4.0
141
1.0
290
     0
  0
SCALE
  5
56
102
{ACAD_REACTORS
330
47
102
}
330
47
100
AcDbScale
 70
     0
300
8:1
140
8.0
141
1.0
290
     0
  0
SCALE
  5
57
102
{ACAD_REACTORS
330
47
102
}
330
47
100
AcDbScale
 70
     0
300
10:1
140
10.0
141
1.0
290
     0
  0
SCALE
  5
58
102
{ACAD_REACTORS
330
47
102
}
330
47
100
AcDbScale
 70
     0
300
100:1
140
100.0
141
1.0
290
     0
  0
SCALE
  5
59
102
{ACAD_REACTORS
330
47
102
}
330
47
100
AcDbScale
 70
     0
300
1/128" = 1'-0"
140
0.0078125
141
12.0
290
     0
  0
SCALE
  5
5A
102
{ACAD_REACTORS
330
47
102
}
330
47
100
AcDbScale
 70
     0
300
1/64" = 1'-0"
140
0.015625
141
12.0
290
     0
  0
SCALE
  5
5B
102
{ACAD_REACTORS
330
47
102
}
330
47
100
AcDbScale
 70
     0
300
1/32" = 1'-0"
140
0.03125
141
12.0
290
     0
  0
SCALE
  5
5C
102
{ACAD_REACTORS
330
47
102
}
330
47
100
AcDbScale
 70
     0
300
1/16" = 1'-0"
140
0.0625
141
12.0
290
     0
  0
SCALE
  5
5D
102
{ACAD_REACTORS
330
47
102
}
330
47
100
AcDbScale
 70
     0
300
3/32" = 1'-0"
140
0.09375
141
12.0
290
     0
  0
SCALE
  5
5E
102
{ACAD_REACTORS
330
47
102
}
330
47
100
AcDbScale
 70
     0
300
1/8" = 1'-0"
140
0.125
141
12.0
290
     0
  0
SCALE
  5
5F
102
{ACAD_REACTORS
330
47
102
}
330
47
100
AcDbScale
 70
     0
300
3/16" = 1'-0"
140
0.1875
141
12.0
290
     0
  0
SCALE
  5
60
102
{ACAD_REACTORS
330
47
102
}
330
47
100
AcDbScale
 70
     0
300
1/4" = 1'-0"
140
0.25
141
12.0
290
     0
  0
SCALE
  5
61
102
{ACAD_REACTORS
330
47
102
}
330
47
100
AcDbScale
 70
     0
300
3/8" = 1'-0"
140
0.375
141
12.0
290
     0
  0
SCALE
  5
62
102
{ACAD_REACTORS
330
47
102
}
330
47
100
AcDbScale
 70
     0
300
1/2" = 1'-0"
140
0.5
141
12.0
290
     0
  0
SCALE
  5
63
102
{ACAD_REACTORS
330
47
102
}
330
47
100
AcDbScale
 70
     0
300
3/4" = 1'-0"
140
0.75
141
12.0
290
     0
  0
SCALE
  5
64
102
{ACAD_REACTORS
330
47
102
}
330
47
100
AcDbScale
 70
     0
300
1" = 1'-0"
140
1.0
141
12.0
290
     0
  0
SCALE
  5
65
102
{ACAD_REACTORS
330
47
102
}
330
47
100
AcDbScale
 70
     0
300
1-1/2" = 1'-0"
140
1.5
141
12.0
290
     0
  0
SCALE
  5
66
102
{ACAD_REACTORS
330
47
102
}
330
47
100
AcDbScale
 70
     0
300
3" = 1'-0"
140
3.0
141
12.0
290
     0
  0
SCALE
  5
67
102
{ACAD_REACTORS
330
47
102
}
330
47
100
AcDbScale
 70
     0
300
6" = 1'-0"
140
6.0
141
12.0
290
     0
  0
SCALE
  5
68
102
{ACAD_REACTORS
330
47
102
}
330
47
100
AcDbScale
 70
     0
300
1'-0" = 1'-0"
140
12.0
141
12.0
290
     0
  0
ENDSEC
  0
EOF
